Augustana Tabs

Meet You There

2 versions

TAB

            Tabbed by Miles Johnson (johnsonmd@student.swosu.edu questions or comments)

    "Meet You There" by Augustana on their new album, Can't Love, Can't Hurt

  Intro/ Chorus Riff

e|-4-4-6h8h6/4-----6h8h6/4--4-4-6h8h6/4---1-1-6h8h6--4-4--6h86------6h8h6--4-|
B|-------------4-4----------------------------------------------4-4----------|
G|---------------------------------------------------------------------------|
D|---------------------------------------------------------------------------|
A|---------------------------------------------------------------------------|
E|---------------------------------------------------------------------------|


Intro x 1

0:11
G#                          Fm
     Climb up on a mountain,  just to watch it come down
    C#                      D#
    But sooner or later babe, you're gonna need me around
    G#                      Fm
    'Cause you're getting older, there ain't no stopping that
    C#                               D#
    It's a backstabbing world honesty, just lean your head back


Chorus- 0:38  Intro riff - 0:39


G#
The fool in me
D#               G#      F
It's like a dream, you see
                        G#
But if the world is right
                   D#
I'll drive all night
                        G#
And meet you there someday


Verse 2 - 0:50

                   F
Six in the morning, never felt so sweet
C#                          D#
Just put on Lucinda baby, and dance with me
G#
I know I'm hard to count on
F
Forget half what I'm told
C#
You probably only know my voice from
D#
A goddam microphone

Chorus- 1:17  Intro riff - 1:18


G#
The fool in me
D#               G#      F
It's like a dream, you see
                        G#
But if the world is right
                   D#
I'll drive all night
                        G#
And meet you there someday

     -----

     Solo 1: 1:32

e|--------------------------------------------------------------------------|
B|--------------------------------------------1:43 13--13-14--13-13-repeat--|
G|---5--5-6-5--5--5--5-6-5---Continue until 1:42 ---------------------------|
D|--------------------------------------------------------------------------|
A|--------------------------------------------------------------------------|
E|--------------------------------------------------------------------------|

Solo 1 Chords - You can do a view things to keep the voice going

   Ex 1: Rhythm Gtr can just C-C# and harmonize with the solo gtr while
      bass moves more with something like
G|----------------------------------------------|
D|----------------------------------------------|
A|------------66666666--------------------------|
E|----44444444--------11113333444466------------|

to set up the feel for the guitars to follow later in the song


   OR

Ex 2: a mix of the ideas

C,C,C#,C,C X4 followed by F,G,G#,A# to C#-D#

   ----------

   Bridge - 1:48 (Solo 2 Below - 1:56)


G#          D#
It's a waste
            F        G#
A teenage taste of me
                 G#
But if Daddy cries
                 D#
Just say goodnight
         F
And I'll come
           G#     D#
If I could change
          F        G#
I'd keep away the rain
                   G#             D#
And the sun would shine every night
         F     G     G#     A#
And I'll cuuu--uuuuu-uuuuuu-ummmmmm
 C#      D#                 F     G    G#    A#      C#    D#- Caesura
             meet you there someda----ay-----ay...

    ------
    Solo 2 - 1:56 (It's close but fiddle with the end to your liking.)

 If daddy cries....

e|-13-11---13-11----13-11-13-11--------------------------------------------------|
B|-------9-------11--------------9-13-11----11-----------------------------------|
G|---------------------------------------13----13--------------------------------|

    -----


Chorus- 2:28  Intro riff - 2:29


G#
The fool in me
D#               G#      F
It's like a dream, you see
                        G#
But if the world is right
                   D#
I'll drive all night
                        F   G   G#  A#  C#  D#
And meet you there someday
                        F   G   G#  A#  C#  D#
And meet you there someday
                        F   G   G#  A#  C#  D#
And meet you there someday-ay-ay-ayay!
                          G#
And meet you there someday    

Added On December 16th, 2013

SHARE

Comments

blog comments powered by Disqus

VERSIONS

ADVERTISEMENT