TAB

            Avril Lavigne - Hot
The Best Damn Thing
Track #7
Tunning: Standard (EADGBe)

Intro 2x
e|---------------------------------|
B|---------------------------------|
G|------------8-8-xx--------6-6-xx-|
D|-xxx-6-6-xx-8-8-xx-8-8-xx-6-6-xx-|
A|-xxx-6-6-xx-6-6-xx-8-8-xx-4-4-xx-|
E|-xxx-4-4-xx--------6-6-xx--------|

Verse 4x palm muted

e|-------------------------------------|
B|-------------------------------------|
G|-------------------------------------|
D|-------------------55555555-66666666-|
A|-66666666-33333333-33333333-44444444-|
E|-44444444-11111111-------------------|
PM:........ ........ ........ ........
Pre-Chorus

e|----------|
B|----------|
G|----------|
D|-3-3--6-6-|
A|-1-1--4-4-|
E|----------|

Chorus

e|-----------------|
B|-----------------|
G|-8-8-----6-6-----|
D|-8-8-8-8-6-6-6-6-| 2x
A|-6-6-8-8-4-4-6-6-|
E|-----6-6-----4-4-|

Continued:

e|----------------------|-------------------|
B|----------------------|-------------------|
G|------8888------6666--|------8888------6~-|
D|-6666-8888-8888-6666--|-6666-8888-8888-6~-|
A|-6666-6666-8888-4444--|-6666-6666-8888-4~-|
E|-4444------6666-------|-4444------6666----|

Verse 4x palm muted

e|-------------------------------------|
B|-------------------------------------|
G|-------------------------------------|
D|-------------------55555555-66666666-|
A|-66666666-33333333-33333333-44444444-|
E|-44444444-11111111-------------------|
PM:........ ........ ........ ........

Pre-Chorus

e|----------|
B|----------|
G|----------|
D|-3-3--6-6-|
A|-1-1--4-4-|
E|----------|

Chorus

e|-----------------|
B|-----------------|
G|-8-8-----6-6-----|
D|-8-8-8-8-6-6-6-6-| 2x
A|-6-6-8-8-4-4-6-6-|
E|-----6-6-----4-4-|

Continued:

e|----------------------|-------------------|
B|----------------------|-------------------|
G|------8888------6666--|------8888------6~-|
D|-6666-8888-8888-6666--|-6666-8888-8888-6~-|
A|-6666-6666-8888-4444--|-6666-6666-8888-4~-|
E|-4444------6666-------|-4444------6666----|

Interlude
e|-------------------------------------------------------------------------|
B|--------6h7p6--------------6h7p6--------7h9p7--------6h7p6---------------|
G|---5----------5---5----5---------5---5--------5-5--5------5---5---5------|
D|--8-8----------6-8----8-8---------6-8----------6--8--------6-8---8-8-----|
A|-8---8----------8----8---8---------8-------------8----------8---8---8----|
E|-------------------------------------------------------------------------|

e|----------|
B|-6h7p6----|
G|-------5--|
D|--------6-|
A|----------|
E|----------|

Chorus

e|-----------------|
B|-----------------|
G|-8-8-----6-6-----|
D|-8-8-8-8-6-6-6-6-| 4x
A|-6-6-8-8-4-4-6-6-|
E|-----6-6-----4-4-|

Continued:

e|----------------------|-------------------|
B|----------------------|-------------------|
G|------8888------6666--|------8888------6~-|
D|-6666-8888-8888-6666--|-6666-8888-8888-6~-|
A|-6666-6666-8888-4444--|-6666-6666-8888-4~-|
E|-4444------6666-------|-4444------6666----|

Let ring the C#5


Lyrics:

Intro
G#5 D#5 A#5 C#5 2x

You're so good to me baby baby

Verse
G#5 F5 C5 C#5 4x

I want to lock you up in my closet, where no one's
around
I want to put your hand in my pocket, because you're
allowed
I want to drive you into the corner, and kiss you
without a sound
I want to stay this way forever, I'll say it loud

Pre-chorus
A#5 C#5

Now you're in and you can't get out

Chorus
D#5 A#5 C#5 G#5 2x

You make me so hot
Make me wanna drop
You're so ridiculous
I can barely stop
I can hardly breathe
You make me wanna scream
You're so fabulous

G#5 D#5 A#5 C#5 2x

You're so good to me Baby Baby
You're so good to me Baby Baby

G#5 F5 C5 C#5 4x

I can make you feel all better, just take it in
And I can show you all the places, you've never been
And I can make you say everything, that you never
said
And I will let you do anything, again and again

Pre-chorus
A#5 C#5

Now you're in and you can't get out

Chorus
D#5 A#5 C#5 G#5 2x

You make me so hot
Make me wanna drop
You're so ridiculous
I can barely stop
I can hardly breathe
You make me wanna scream
You're so fabulous

G#5 D#5 A#5 C#5 2x

You're so good to me Baby Baby
You're so good to me Baby Baby

Interlude
e|-------------------------------------------------------------------------|
B|--------6h7p6--------------6h7p6--------7h9p7--------6h7p6---------------|
G|---5----------5---5----5---------5---5--------5-5--5------5---5---5------|
D|--8-8----------6-8----8-8---------6-8----------6--8--------6-8---8-8-----|
A|-8---8----------8----8---8---------8-------------8----------8---8---8----|
E|-------------------------------------------------------------------------|

e|----------|
B|-6h7p6----|
G|-------5--|
D|--------6-|
A|----------|
E|----------|

Kiss me gently
Always I know
Hold me love me
Don't ever go

Chorus
D#5 A#5 C#5 G#5 2x

You make me so hot
Make me wanna drop
You're so ridiculous
I can barely stop
I can hardly breathe
You make me wanna scream
You're so fabulous
You're so good to me

D#5 A#5 C#5 G#5 2x

You make me so hot
Make me wanna drop
You're so ridiculous
I can barely stop
I can hardly breathe
You make me wanna scream
You're so fabulous

G#5 D#5 A#5 C#5 2x

You're so good to me Baby Baby
You're so good to me Baby Baby

C#5

You're so good





By Lucas x)
Hope you enjoy    

Added On December 16th, 2013

SHARE

Comments

blog comments powered by Disqus

VERSIONS

ADVERTISEMENT