Babasonicos Tabs

Zumba

1 versions

TAB

            Zumba Tab by Babasonicos


INTRO:
E---------------------------------------------------------------------0------|
A-------------------2-0------2-------------------------2-0---------2--2--1h2-|
D-2---5-2-0-2---2-0--------0---------2---5-2-0-2---2-0-------0-2-0----2------|
G-------------0----------------------------------0--------------------0------|
B---------------------------------------------------------------------0------|
E---------------------------------------------------------------------0------|

Despues de "siempre estas un paso mas alla..."

E----------------------------------|
A----------------------------------|
D----------------------------------|
G-0--0-4-0-4-0-2-0-2---------------|
B--------------------3-5-5-3-0-3-0-|
E----------------------------------|

OUTRO
E-0---------------|
A---1h2--0h2--1h2-|
D-----------2-----|
G-----------------|
B-----------------|
E-----------------|    

Added On December 4th, 2013

SHARE

Comments

blog comments powered by Disqus

ADVERTISEMENT