Beat Crusaders Tabs

Japanese Girl

2 versions

TAB

            Japanese Girl Tab by Beat Crusaders


theres been alot of japanese guitar tabs and alot of them suck. but if my tabs dont come 
is clear, tell me and ill get on it.

Beat Crusaders
japanese girl

It will help if you listen to the song, so it will be more easy to get.
H = Hammer

0:04
   h                  h
|-5-7777-44444-5-55-|-5-7777-44444-5-55-----------------------------|
|-5-5555-55555-5-55-|-5-5555-55555-5-55-----------------------------|
|-------------------|-----------------------------------------------|
|-------------------|-----------------------------------------------|
|-------------------|-----------------------------------------------|
|-------------------|-----------------------------------------------|

0:10 both guitars

      h                  h                                      Guitar 1
   |-5-7777-44444-5-55-|-5-7777-44444-5-55-----------------------------|
   |-5-5555-55555-5-55-|-5-5555-55555-5-55-----------------------------|
   |-------------------|-----------------------------------------------|
   |-------------------|-----------------------------------------------|
   |-------------------|-----------------------------------------------|
   |-------------------|-----------------------------------------------|
                     Both guitars together
|-------------------------------------------------------------------|
|-------------------------------------------------------------------|
|-------------------------------------------------------------------|
|-22-2----------------22-2------------------------------------------|Guitar2
|-22-2----------------22-2------------------------------------------|
|-00-0----------------00-0------------------------------------------|

guitar 1 keeps doing the intro while the 2nd guitar is playing

power chord
    A     Cm      D               A     Cm    D    Gm
  |-x-|  |-x-|  |-x-|            x4    x4    x4  |-x-|
  |-x-|  |-x-|  |-x-|                            |-x-|
  |-x-|  |-6-|  |-7-|                            |-x-|
  |-7-|  |-6-|  |-7-| next set                   |-6-|
  |-7-|  |-4-|  |-5-|                            |-6-|
  |-5-|  |-x-|  |-x-|                            |-4-|
   x4     x4     x8                               x4

      you do both of these sets 2 times untill the verse which is:
0:26

    A     E                         Fm
  |-x-| |-x-|                      |-x-|
  |-x-| |-x-|                      |-x-|
  |-x-| |-x-|   A          A   E   |-x-|        A  E  A
  |-7-| |-2-|  x2   then  x2  x2   |-4-| then  x2 x2 x2
  |-7-| |-2-|                      |-4-|
  |-5-| |-0-|                      |-2-|
   x2    x2

last                   A   E   Fm
                      x2  x2  x2
if you listen theres a part where one of the guitars dose this at the end

|-------------------------------|
|-10-9--------------------------|
|-----11-9----------------------|
|----------11-9-7---------------|
|-------------------------------|
|-------------------------------|


after that happens it gose into the per-chours which gose like this:


 A     E     Fm    D
x4    x4    x4    x4

 A     E     A    stop
x4    x4    x5

so you do the verse again then the per-chorus then the Chorus that gose like this:

 A    E    Fm     D     E
x7   x7   x7     x4   |-x-|
                      |-x-|
                      |-9-|
                      |-9-|
                      |-7-|
                      |-x-|
                       x4

I like to do this when the Chorus start, its the part of the key board in guitar
0:59

  A
|-----------------------------|---------------1^---------------------------|
|-----------------------------|---------------3^---------------------------|
|------6-9-11---9-7-----------|---------------2^---------------------------|
|-7----6-9-11---9-7-9-9-------|----7---------------------------------------|
|-7----4-7-9----7-5-9-9-------|----7---------------------------------------|
|-5-----------------7-7-------|----5---------------------------------------|
 x12                           hold the note
            x2^

go back to the verse then per-chorus then Chorus,
after that its the 2nd Chorus

|-----------------------------------------|---------------------------------|
|-----------------------------------------|---------------------------------|
|-----------------------------------------|----99--9---9--9--9--------------|
|-----------------------------------------|----99--9---9--9--9--------------|
|--3h4--3h4------------1h2--1h2--5h7--5h7-|----77--7---7--7--7--------------|
|------------0h2--0h2---------------------|---------------------------------|
                                 ^on the^        then play this,
                                  2n time,      hold each note for
                  x2^           leave these    4sec's
                                    out

Then play the chorus untill it ends with the verse part

(just listen to the song and you'll know what im talking about)


well there you go bitches, if you want to download the song email me and ill send it or 
get with it whatever music download site you have.

Rock On niggas
Rusty S.                                      drummerdirtydee@yahoo.com    

Added On December 4th, 2013

SHARE

Comments

blog comments powered by Disqus

VERSIONS

ADVERTISEMENT