Biffy Clyro Tabs

Folding Stars

4 versions

TAB

            Folding Stars
Biffy Clyro
Puzzle (2007)
Tuning: Drop-D (DADGBE)
Tabbed by; Carlson2000

h = hammer on
p = pull off
\ = slide down
/ = slide up
~ = let ring

Intro (Quiet guitar)
=====
-------17----------17\\\-|
-15----------15----------|
----14----14----14-------|
-------------------------|
-------------------------|
-------------------------|

When drums and bass kick in; (0:04).
Other part is played in background
with delay

------------------------|
------------------------|
-6-6-6--7-7-7--6-777777-| x4
---------------4/555555-|
-4-4-4--5-5-5--4/555555-|
---------------4/555555-|

Verse (0:23)
=====
---
---
-7- x36 (For duration of 4x bass playing
---      same as intro)
-5-
---

Pre-Chorus (0:43)
==========
Guitar 1
-------17----------17----|
-15----------15-------14-|
----14----14----14-------| x2
-------------------------|
-------------------------|
-------------------------|

Guitar 2
------------------------|
------------------------|
-4-44--6-66--777--9-999-| x2
-2-22--4-44--555--7-777-|
-2-22--4-44--555--7-777-|
-2-22--4-44--555--7-777-|

Chorus (Eleanorr...) (0:52)
======
-----------------------------------------------------------------|
-----------------------------------------------------------------|
-2-22-222--9-99-999--9-99-999--11-1111-111111-7-77-777--4-44-444-|
-0-00-000--7-77-777--7-77-777--9--9-9--9-9-9--5-55-555--2-22-222-|
-0-00-000--7-77-777--7-77-777--9--9-9--9-9-9--5-55-555--2-22-222-|
-0-00-000--7-77-777--7-77-777--9--9-9--9-9-9--5-55-555--2-22-222-|

---------------------|
---------------------|
-2-22-222--9-99-999--|
-0-00-000--7-77-777--|
-0-00-000--7-77-777--|
-0-00-000--7-77-777--|


Intro (part 2) x2 [1:12-1:20]

Verse 2
=======
Guitar 1 [Listen for timing]
w/ Chorus, Reverb
-----------------------|
--------------7--------|
-9-7----9-7------9-7---|
-----7------7--------7-|
-----------------------|
-----------------------|


Guitar 2
---
---
-7- x36 (For duration of 4x bass playing
---      same as intro)
-5-
---

Pre-Chorus [1:38]

Chorus x2 [1:50]

Bridge [2:26]
======
Guitar 1
-----------------------------------------------------------------------------------------------|
-----------------------------------------------------------------------------------------------|
-6-6-6--7-7-7--6-7~-------------6-6-6--7-7-7--6-7~--------------6-6-6--7-7-7--6-7~-------------|
---------------4/5~---------------------------4/5~----------------------------4/5~-------------|
-4-4-4--5-5-5--4/5~-------------4-4-4--5-5-5--4/5~--------------4-4-4--5-5-5--4/5~-------------|
---------------4/5~---------------------------4/5~----------------------------4/5~-------------|

Guitar 2
-----------------------------------------------------------------------------------------------|
-----------------------------------------------------------------------------------------------|
--------------------7h9p7---9~---------------------7p9p7h--9/7~-------------------7p9h7---9-7~-|
--------------------------7-----------------------------h7------------------------------7------|
-----------------------------------------------------------------------------------------------|
-----------------------------------------------------------------------------------------------|

Guitar 1
--------------------|
--------------------|
-6-6-6--7-7-7--6-7~-|
---------------4/5~-|
-4-4-4--5-5-5--4/5~-|
---------------4/5~-|

Pre-Chorus x4 [2:43]

Chorus x2 [3:03]

Outro [3:42]
=====
Guitar 1
-------17----------17\\\-|
-15----------15----------|
----14----14----14-------|
-------------------------|
-------------------------|
-------------------------|

Guitar 2
------------------------|
------------------------|
-6-6-6--7-7-7--6-777777-| x3
---------------4/555555-|
-4-4-4--5-5-5--4/555555-|
---------------4/555555-|

then

Guitar 1
--------------------------------|
--------------------------------|
-6-6-6--7-7-7--6-14~---------2~-|
---------------4/12~---------0~-|
-4-4-4--5-5-5--4/12~---------0~-| [Volume Swell]
---------------4/12~---------0~-|

Guitar 2
-----------------------------------------|
-----------------------------------------|
---------------------------7h9p7h--9p7~~-|
--------------------------------h7-------|
-----------------------------------------|
-----------------------------------------|    

Added On December 16th, 2013

SHARE

Comments

blog comments powered by Disqus

VERSIONS

ADVERTISEMENT