Black Eyed Peas Tabs

My Humps

1 versions

TAB

            My Humps Tab by Black Eyed Peas


My Humps-Black Eyed Peas

Normal Tuning e-b-g-d-a-e

Hope you enjoy

i put the times and the beats on the measures



|---------------| |---------------| |---------------|
|---------------| |3-----5---6---5| |----3----------|
|3-------3------| |---------------| |---------------|
|3-------3------| |---------------| |---------------|
|1-------1------| |---------------| |---------------|
|---------------| |---------------| |---------------|
 1 & 2 & 3 & 4 &   1 & 2 & 3 & 4 &   1 & 2 & 3 & 4 &
:24     :28      :33

|---------------| |---------------|
|3-----5---6---5| |----3-------3--|
|---------------| |------------3--|
|---------------| |------------1--|
|---------------| |---------------|
|---------------| |---------------|
 1 & 2 & 3 & 4 &   1 & 2 & 3 & 4 &
:40

|---------------| |---------------|
|3-----5---6---5| |----3-------3--|
|---------------| |------------3--|
|---------------| |------------1--|
|---------------| |---------------|
|---------------| |---------------|
 1 & 2 & 3 & 4 &   1 & 2 & 3 & 4 &
:48

|---------------| |---------------|
|---------------| |---------------|
|---------------| |---------------|
|0-----2---3---2| |----0----------|
|---------------| |---------------|
|---------------| |---------------|
 1 & 2 & 3 & 4 &   1 & 2 & 3 & 4 &
:55

|---------------| |---------------|
|3-----5---6---5| |----3----------|
|---------------| |---------------|
|---------------| |---------------|
|---------------| |---------------|
|---------------| |---------------|
 1 & 2 & 3 & 4 &   1 & 2 & 3 & 4 &
1:11

|---------------| |---------------|
|3-----5---6---5| |----3----------|
|---------------| |---------------|
|---------------| |---------------|
|---------------| |---------------|
|---------------| |---------------|
 1 & 2 & 3 & 4 &   1 & 2 & 3 & 4 &
1:19

|---------------| |---------------|
|---------------| |---------------|
|---------------| |---------------|
|0-----2---3---2| |----0----------|
|---------------| |---------------|
|---------------| |---------------|
 1 & 2 & 3 & 4 &   1 & 2 & 3 & 4 &
1:27

|---------------| 
|---------------| 
|3-4-5-3--------| 
|3-4-5-3--------| 
|1-2-3-1--------|
|---------------| 
 1 & 2 & 3 & 4 & 
1:28 ^same time

|---------------| |---------------|
|3-----5---6---5| |----3----------|
|---------------| |---------------|
|---------------| |---------------|
|---------------| |---------------|
|---------------| |---------------|
 1 & 2 & 3 & 4 &   1 & 2 & 3 & 4 &
1:34 soft

|---------------| 
|---------------| 
|3-4-5-3--------| 
|3-4-5-3--------| 
|1-2-3-1--------|
|---------------| 
 1 & 2 & 3 & 4 & 
1:36    

Added On December 4th, 2013

SHARE

Comments

blog comments powered by Disqus

ADVERTISEMENT