Blessthefall Tabs

Higinia

3 versions

TAB

            Higinia Tab by Blessthefall


Higinia
BlesstheFall
Lead Guitar
by Myke R

Fixed intro, chorus, and breakdown. should be 100% now.

Dadgbe

Intro Guitar1
E:--------------------------|
B:--------------------------|
G:--------------------------|
D:8-7-----------------------|
A:---10-8-7-8-10-8-7h8-7h8--| x1
D:--------------------------|

Chorus
E:-------------------------------------------------------------------|
B:-------------------------------------------------------------------|
G:-------------12-121212-9-999-9/10-101010101010---------------------|
D:0-----0------x--x-x-x--x-xxx-x-x--x-x-x-x-x-x--87------------------|x1
A:0-000-0-000--10-101010-7-777-7/8--8-8-8-8-8-8----10878108-7h8-7h8--|
D:0-000-0-000--------------------------------------------------------|
Pm--...---...
E:-------------------------------------|
B:-1010-9h10p9-1212-1010-9h10p9--------|
G:-----------------------------1010----|
D:-------------------------------------|   x4
A:-------------------------------------|
D:-------------------------------------|

Chorus
E:-------------------------------------------------------------------|
B:-------------------------------------------------------------------|
G:-------------12-121212-9-999-9/10-101010101010---------------------|
D:0-----0------x--x-x-x--x-xxx-x-x--x-x-x-x-x-x--87------------------|x1
A:0-000-0-000--10-101010-7-777-7/8--8-8-8-8-8-8----10878108-7h8-7h8--|
D:0-000-0-000--------------------------------------------------------|

E:-------------------------------------|
B:-1010-9h10p9-1212-1010-9h10p9--------|
G:-----------------------------1010----|
D:-------------------------------------|   x4
A:-------------------------------------|
D:-------------------------------------|

Bridge
E:----------------------------------|
B:----------------------------------|
G:----------------------------------|
D:----------------------------------|
A:-5555555555555555-8888888888888888 x1
D:-5555555555555555-8888888888888888
Pm-................-................

E:-------------------------------------|
B:-------------------------------------|
G:-------------------------------------|
D:-------------0-0------------0-----0--| x2
A:-0-0-0-0-0-0-0-0--0-0-0-0-0-0-----0--|
D:-0-0-0-0-0-0-0-0--0-0-0-0-0-0-000-0--|
Pm-.-.-.-.-.-.------.-.-.-.-.----------|..

E:--------------------------------------|
B:--------------------------------------|
G:--------------------------------------|
D:---------------------------------8~---|
A:-5555555555555555-88888888888888-8~---|  x1
D:-5555555555555555-88888888888888-8~---|
Pm-................-...............

YOU WILL NOT DIE
E:-----------------------------------|
B:-----------------------------------|
G:-----------------------------------|
D:----------------------------0-0-0--| x4
A:------0-0------0-0------0-0-0-0-0--|
D:-00-0-0-0-00-0-0-0-00-0-0-0-0-0-0--|
Pm-..-.-----..-.-----..-.------------|

Chorus
Chorus
E:-------------------------------------------------------------------|
B:-------------------------------------------------------------------|
G:-------------12-121212-9-999-9/10-101010101010---------------------|
D:0-----0------x--x-x-x--x-xxx-x-x--x-x-x-x-x-x--87------------------|x1
A:0-000-0-000--10-101010-7-777-7/8--8-8-8-8-8-8----10878108-7h8-7h8--|
D:0-000-0-000--------------------------------------------------------|
Pm--...---...
E:-------------------------------------|
B:-1010-9h10p9-1212-1010-9h10p9--------|
G:-----------------------------1010----|
D:-------------------------------------|   x4
A:-------------------------------------|
D:-------------------------------------|

Chorus
E:-------------------------------------------------------------------|
B:-------------------------------------------------------------------|
G:-------------12-121212-9-999-9/10-101010101010---------------------|
D:0-----0------x--x-x-x--x-xxx-x-x--x-x-x-x-x-x--87------------------|x1
A:0-000-0-000--10-101010-7-777-7/8--8-8-8-8-8-8----10878108-7h8-7h8--|
D:0-000-0-000--------------------------------------------------------|
Pm--...---...

E:-------------------------------------|
B:-1010-9h10p9-1212-1010-9h10p9--------|
G:-----------------------------1010----|
D:-------------------------------------|   x4
A:-------------------------------------|
D:-------------------------------------|

Breakdown
E:--------------------------------------------|
B:--------------------------------------------|
G:--------------------------------------------|
D:--------------------------------------------| x1
A:---7-7h8--8-8h10--10-10p8--8-8p7------------|
D:-00-----00------00-------00-----------------|
Pm-..-----..------..--------------------------|.
E:--------------------------------------------|
B:--------------------------------------------|
G:--------------------------------------------|
D:--------------------------------------------|
A:---7-7h8--8-8h10--10-10p8--12-12p10---------| x1
D:-00-----00------00-------00-----------------|
Pm-..-----..------..--------------------------|.
E:--------------------------------------------|
B:--------------------------------------------|
G:--------------------------------------------|
D:------------------------------------7h8h10--| x1
A:---7-7h8--8-8h10--10-10p8---7h8p10----------|
D:-00-----00------00-------00-----------------|
Pm-..-----..------..--------------------------|.
E:--------------------------------------------|
B:--------------------------------------------|
G:--------------------------------------------|
D:------------------------87------------------|
A:---7-7h8--8-8h10--10-8----1087^-------------| x1
D:-00-----00------00--0--0--------------------|
Pm-..-----..------..--.-----------------------|

E:----------------------------------|
B:----------------------------------|
G:----------------------------------|
D:----------------------------------|
A:----0-0-7-7-7h8----0-0-7-7-7h8----|
D:-00-0-0---------00-0-0------------|
Pm-..-.-----------..-.--------------|
E:-----------------------------------|           x4
B:-----------------------------------|
G:-----------------------------------|
D:--------7---------------87---------|   
A:----8-8--1081087----8-8---108-7----|
D:-88-8-8----------88-8-8------------|
Pm-..-.------------..-.--------------|

YOU WILL NOT DIE
E:-----------------------------------|
B:-----------------------------------|
G:-----------------------------------|
D:----------------------------0-0-0--| x4
A:------0-0------0-0------0-0-0-0-0--|
D:-00-0-0-0-00-0-0-0-00-0-0-0-0-0-0--|
Pm-..-.-----..-.-----..-.------------|    

Added On December 4th, 2013

SHARE

Comments

blog comments powered by Disqus

VERSIONS

ADVERTISEMENT