Boehse Onkelz Tabs

Mexiko

2 versions

TAB

            Mexiko

Standarttuning

Die is nur zur Hälfte von mir. Hab die ma iwo gefunden. Würd mich übrigens freuen wenn 
noch andere Tabs von den Onkelz reinstellt.

Part 1 (Intro)
Es werden Oktaven gespielt  ACHTUNG!: D-Saite abdämpfen (Zeigefinger greift auf der
und berührt dabei die D-Saite.)

e|---------------------------|-----------------------|
H|---------------------------|-----------------------|
G|---9---7--12--11---9--11---|---9---7--12--11--14---|
D|---x---x---x---x---x---x---|---x---x---x---x---x---|
A|---7---5--10---9---7---9---|---7---5--10---9--12---|
E|---------------------------|-----------------------|


Part 2 (Verse)


a)

e|-------------------|----------------------------|
H|-------7---7-------|----------------------------|
G|---7---7---7---7---|---5------------------------|	3x a)
D|---7---5---5---7---|---5--------------------7---|
A|---5-----------5---|---3--------------------7---|
E|-------------------|-------3////////////4---5---|
     D	 D   D   U       D   D	     D


b)

e|-------------------|-------------------|
H|-------7---7-------|-------8---8-------|
G|---7---7---7---7---|---7---7---7---7---|  dann wieder 3x a) aber nur 2x
D|---7---5---5---7---|---7---7---7---7---|  spielen -///; danach c)
A|---5-----------5---|---5---5---5---5---|
E|-------------------|-------------------|
     D   D   D   U       U   D	 D   U


a)

e|-------------------|----------------------------|
H|-------7---7-------|----------------------------|
G|---7---7---7---7---|---5------------------------|	3x a)
D|---7---5---5---7---|---5--------------------7---|
A|---5-----------5---|---3--------------------7---|
E|-------------------|-------3////////////4---5---|

c)

e|-------------------|-----------------------|-----------------------------|
H|-------7---7-------|-----------7---7-------|-----------------------------|
G|---7---7---7---7---|---7---7---7---7---7---|-------9---------------------|
D|---7---5---5---7---|---7---7---5---5---7---|---9---9---7---7--7--7--7--7-|
A|---5-----------5---|---5---5-----------5---|---9---7---7---7--7--7--7--7-|
E|-------------------|-----------------------|---7-------5---5--5--5--5--5-|
     D   D   D   U       U   U   D   D   U       D   D   D   M-------------|

Part 3 (Refrain)

e|--------------------------------------------------------------------------|
H|--------------------------------------------------------------------------|
G|---------7--9----9-11-11--9--7--9----9--------7--9----9--7--7--6-----9----|
D|---7--7--7--9----9-11-11--9--7--9----9--7--7--7--9----9--7--7--6--9--9----|
A|---7--7--5--7----7--9--9--7--5--7----7--7--7--5--7----7--5--5--4--9--7----|
E|---5--5---------------------------------5--5----------------------7-------|

e|--------------------------------------------------------------------------|
H|--------------------------------------------------------------------------|
G|---9--------7--9----9-11---11-11--9----9--7--7----7--9--9----9-----9------|
D|---9--7--7--7--9----9-11---11-11--9----9--7--7----7--9--9----9--7--9--7---|
A|---7--7--7--5--7----7--9----9--9--7----7--5--5----5--7--7----7--7--7--7---|
E|------5--5------------------------------------------------------5-----5---|

e|
H|
G|
D|-------------7-|
A|-------------7-|
E|-3////////4--5-|
   D     D

das Ganze wiederholen!!!!!!!!!!!!


"Und jetzt kommt die Stelle zum Tanzen....."

E----------------------------------------------------|
H----------------------------------------------------|
G----------------------------------------------------|
D----------------------------------------------------|
A-----4-5-------------4-5-------------4-5-7-7-7-7-7--|
E---7-----5-5-5-5-5-7-----5-5-5-5-5-7----------------|

E----------------------------------------------------|
H----------------------------------------------------|
G----------------------------------------------------|
D----------------------------------------------------|
A--5-4---------------4-5-------------4-5-------------|
E------7-5-5-5-5-5-7-----5-5-5-5-5-7-----5-5-5-5-5-7-|

E----------------------------------------------------|
H----------------------------------------------------|
G----------------------------------------------------|
D----------------------------------------------------|
A--4-5-7-7-7-7-7-5-4---------------------------------|
E--------------------7-5-5-5-5-5-5-5-5---------------|

E----------------------------------------------------|
H----------------------------------------------------|
G--7-------------6-------------7-------------4-------|
D--7-------------6-----7-------7-------------4-------|
A--5-5-5-5-5-5-5-4-4-4-7-------5-5-5-5-5-5-5-6-4-4---|
E----------------------5-5-5-5-----------------------|

E----------------------------------------------------|
H----------------------------------------------------|
G-----------7-------------6-----7-------9--7---------|
D--7--------7-------------6-----7-------9--7--7------|
A--7--------5-5-5-5-5-5-5-4-4-4-5-5-5-5-7--5--7------|
E--5-5-5-5------------------------------------5------|


Part 3 (Refrain)

e|--------------------------------------------------------------------------|
H|--------------------------------------------------------------------------|
G|---------7--9----9-11-11--9--7--9----9--------7--9----9--7--7--6-----9----|
D|---7--7--7--9----9-11-11--9--7--9----9--7--7--7--9----9--7--7--6--9--9----|
A|---7--7--5--7----7--9--9--7--5--7----7--7--7--5--7----7--5--5--4--9--7----|
E|---5--5---------------------------------5--5----------------------7-------|

e|--------------------------------------------------------------------------|
H|--------------------------------------------------------------------------|
G|---9--------7--9----9-11---11-11--9----9--7--7----7--9--9----9-----9------|
D|---9--7--7--7--9----9-11---11-11--9----9--7--7----7--9--9----9--7--9--7---|
A|---7--7--7--5--7----7--9----9--9--7----7--5--5----5--7--7----7--7--7--7---|
E|------5--5------------------------------------------------------5-----5---|
                                                                        D
e|
H|
G|
D|-------------7-|
A|-------------7-|
E|-3////////4--5-|
   D     D    

Added On December 16th, 2013

SHARE

Comments

blog comments powered by Disqus

VERSIONS

ADVERTISEMENT