Boys Like Girls Tabs

Let Go

2 versions

TAB

            For this song i only know the first part becasue the part martin plays is in open tuning 
im working on that and will put that part up as soon as i complete it.

Intro
guitar 1
repeat though the whole intro
----4---4---4--------------------------|
---7-7-7-7-7-7-------------------------|
--6---6---6---6------------------------|
---------------------------------------|
---------------------------------------|
---------------------------------------|

Verse repeat until(0:35)      repeat until chorus
-----------------------      ------------------------|
-----------------------      ------------------------|
----------------------- then ------------------------|
---9-/7----------------      -9-9-7-6----------------|
---10/8----------------      -------9-7-6------------|
-----------------------      ------------7-----------|

Chorus
---4-2-4-2-2-2-0----------|
--2-0-2-0------4-0--------|
--------------------------|
--------------------------|
--------------------------|
--------------------------|
thats all so far but theres more coming    

Added On December 16th, 2013

SHARE

Comments

blog comments powered by Disqus

VERSIONS

ADVERTISEMENT