Brand New Tabs

Tautou

2 versions

TAB

            -------------------------------------------------------------------------------
			     TAUTOU - BRAND NEW
-------------------------------------------------------------------------------
Tabbed by:Reyce
Email:Spaggy_T@hotmail.com

Tuning:Standard

After looking through the tabs i found most where pretty much correct or close enough 
i feel that this is a much better tab for getting in the whole effect rather than just the 
picking...

e|------------------------------------------------|
B|------------------------------------------------|
G|------------------------------------------------|
D|----6--7--6----------------------------2~~------|
A|-------------7~~--4-5-5-5~--9-7-5-4-2--2~~------|
E|---------------------------------------0~~------| x2

e|----------------------------------------------------------------------|
B|----------------------------------------------------------------------|
G|----------------------------------------------------------------------|
D|----7--6--4--2--2-2-2~~--7--6--4--2--2-2-2~~---------------------2~~--|
A|----------------2-2-2~~--------------2-2-2~~-4-5-5-5~--9-7-5-4-2-2~~--|
E|----------------0-0-0~~--------------0-0-0~~---------------------0~~--|

e|--------------------------------------------------------------------|
B|----------3----------------3---------------3---------------3--------|
G|-------4----4---------4------4---------4-----4---------4-----4------|
D|-----4---4----4-----4---4------4-----4---4-----4-----4---4-----4----|
A|---2------------2-2--------------2-0-------------0-0-------------0--|
E|--------------------------------------------------------------------|
Just repeat till close but add build of distortion and strum it out a bit...

| /  slide up
| \  slide down
| h  hammer-on
| p  pull-off
| ~  vibrato
| +  harmonic
| x  Mute note
===============================================================================    

Added On December 16th, 2013

SHARE

Comments

blog comments powered by Disqus

VERSIONS

ADVERTISEMENT