Buckethead Tabs

Pickwicks Lost Chapter

1 versions

TAB

            Song: Pickwick's Lost Chapter

Artist: Buckethead

Album: Decoding The Tombs of Bansheebot.

Tabbed By: Archetype4

Tuning: Tuned 1/2 step down, to play in standard, just move everything down a fret, but 
wont be able to play the rythm part correctly.

   Vibrato on all the high eb and Bb notes.

   The notes on the low Eb and Ab are the rythm guitar, I show it this way so you can 
the timing  better.


eb|----12-11-9---8-10-11---10-9-7---6-8-9---8-7-5---4-6-7---6-5-3---4-6-7-|
Bb|--9---------8---------7--------6-------5-------4-------3-------4-------|
Gb|-----------------------------------------------------------------------|
Db|-----------------------------------------------------------------------|
Ab|-----------------------------------------------------------------------|
Eb|-----------------------------------------------------------------------|


eb|---8-7-5---6-8-9---10-9-7---8-10-11---12-11-9----10-12-13----14-13-11--|
Bb|-5-------6-------7--------8---------9---------10----------11-----------|
Gb|-----------------------------------------------------------------------|
Db|-----------------------------------------------------------------------|
Ab|-2-------3-------4--------5---------6----------7----------8------------|
Eb|-0-------1-------2--------3---------4----------5----------6------------|


eb|----12-14-15----16-14-13----14-16-17----18-17-15---16-18-19----20-19-17----18-20-21--23~/-|
Bb|-12----------13----------14----------15---------16----------17----------18----------------|
Gb|------------------------------------------------------------------------------------------|
Db|------------------------------------------------------------------------------------------|
Ab|-9-----------10----------11----------12---------13----------14----------15-----------18---|
Eb|-7-----------8-----------9-----------10---------11----------12----------13-----------16---|    

Added On December 16th, 2013

SHARE

Comments

blog comments powered by Disqus

ADVERTISEMENT