Caliban Tabs

Let Go

2 versions

TAB

            Let Go

                             by Caliban
                           The Awakening(2007)



tabbed by: mrbraz
Tuning: Drop C (from low to high:CGCFAD)


Intro

 both guitars
d|-----------------------------------------------------------------------|
a|-----------------------------------------------------------------------|
f|-----------------------------------------------------------------------|
c|-6-7--10-9-7-6---------------------------------------------------------|
g|-6-7--10-9-7-6---6-----7----6---------------6-----7----6---------------|
c|-6-7--10-9-7-6---6-000-7-00-6-000000000000--6-000-7-00-6-0111114444111-|
         . . . .     ...   ..   ............    ...   ..   .............
 

d|---------------------------------------------------------------------|
a|-----------------------------------9-9-10-10-13-13-12-12-10-10-9-9-9-|
f|-----------------------------------8-8-9--9--12-12-11-11-9--9--8-8-8-|
c|-----------------------------------6-6-7--7--10-10-9--9--7--7--6-6-6-|
g|-6-----7----6----------------------6-6-7--7--10-10-9--9--7--7--6-6-6-|
c|-6-000-7-00-6-0000000000000000000--6-6-7--7--10-10-9--9--7--7--6-6-6-|
     ...   ..   ...................


Main Riff/Verse

 guitar 1
d|--------------------------------------------------------------|
a|--------------------------------------------------------------|
f|--------------------------------------------------------------|
c|----------------4--------4----------------------------4-------|
g|-7-0-0-0--7-6h7---0-0-0----6h7-4-0-0-0--7-6h7-4----6-----7----|
c|---0-0-0----------0-0-0----------0-0-0-----------0---0-0------|
 |   . . .          . . .          . . .           .   . .
 |
 |
 |guitar 2
d|--------------------------------------------------------------|
a|--------------------------------------------------------------|
f|--------------------------------------------------------------|
c|----------------4--------4----------------------------4-------|
g|-7-0-0-0--7-6h7---0-0-0----6h7-4-0-0-0--7-6h7-4----6-----7----|
c|---0-0-0----------0-0-0----------0-0-0-----------0---0-0------|
     . . .          . . .          . . .           .   . .



d|--------------------------------------------------------------|
a|--------------------------------------------------------------|
f|--------------------------------------------------------------|
c|----------------4--------4----------------------------4-------|
g|-7-0-0-0--7-6h7---0-0-0----6h7-4-0-0-0--7-6h7-4----6-----7----|
c|---0-0-0----------0-0-0----------0-0-0-----------0---0-0------|
 |   . . .          . . .          . . .           .   . .
 |
 |
 |
d|--------------------------------------------------------------|
a|--------------------------------------------------------------|
f|--------------------------------------------------------------|
c|----------------4--------4----------------------------7-------|
g|-7-0-0-0--7-6h7---0-0-0----6h7-4-0-0-0--7-6h7-4----9-----10---|
c|---0-0-0----------0-0-0----------0-0-0-----------0---0-0------|
     . . .          . . .          . . .           .   . .

           When I remember the past sad grey days


d|--------------------------------------------------------------|
a|--------------------------------------------------------------|
f|--------------------------------------------------------------|
c|----------------4--------4----------------------------4-------|
g|-7-0-0-0--7-6h7---0-0-0----6h7-4-0-0-0--7-6h7-4----6-----7----|
c|---0-0-0----------0-0-0----------0-0-0-----------0---0-0------|
 |   . . .          . . .          . . .           .   . .
 | 
 |
 |
d|--------------------------------------------------------------|
a|--------------------------------------------------------------|
f|--------------------------------------------------------------|
c|----------------4--------4----------------------------4-------|
g|-7-0-0-0--7-6h7---0-0-0----6h7-4-0-0-0--7-6h7-4----6-----7----|
c|---0-0-0----------0-0-0----------0-0-0-----------0---0-0------|
     . . .          . . .          . . .           .   . .
                   When I surrender


d|--------------------------------------------------------------|
a|--------------------------------------------------------------|
f|--------------------------------------------------------------|
c|----------------4--------4----------------------------4-------|
g|-7-0-0-0--7-6h7---0-0-0----6h7-4-0-0-0--7-6h7-4----6-----7----|
c|---0-0-0----------0-0-0----------0-0-0-----------0---0-0------|
 |   . . .          . . .          . . .           .   . .
 |
 |
 |
d|--------------------------------------------------------------|
a|--------------------------------------------------------------|
f|--------------------------------------------------------------|
c|----------------4--------4----------------------------7-------|
g|-7-0-0-0--7-6h7---0-0-0----6h7-4-0-0-0--7-6h7-4----9-----10---|
c|---0-0-0----------0-0-0----------0-0-0-----------0---0-0------|
     . . .          . . .          . . .           .   . .
                 I will never smile again


then

both guitars
d|----------------------------------------------|
a|----------------------------------------------|
f|---------------6/4----------------------------|
c|-------9/8-----4/2--3/5-----------------------|
g|-------7/6----------1/3-----------------------|
c|-00-00------00----------00-00-00-00-00-00-00--|
   .. ..      ..          .. .. .. .. .. .. ..
               Look in my eyes, 


d|----------------------------------------------|
a|----------------------------------------------|
f|---------------6/4----------------------------|
c|-------9/8-----4/2--3/5-----------------------|
g|-------7/6----------1/3-----------------------|
c|-00-00------00----------00-00-00-00-00-00-00--|
   .. ..      ..          .. .. .. .. .. .. ..
             a killing glance...



d|--------------------------------------------------------------|
a|--------------------------------------------------------------|
f|--------------------------------------------------------------|
c|----------------4--------4----------------------------4-------|
g|-7-0-0-0--7-6h7---0-0-0----6h7-4-0-0-0--7-6h7-4----6-----7----|
c|---0-0-0----------0-0-0----------0-0-0-----------0---0-0------|
 |   . . .          . . .          . . .           .   . .
 | 
 |
 |
d|--------------------------------------------------------------|
a|--------------------------------------------------------------|
f|--------------------------------------------------------------|
c|----------------4--------4----------------------------4-------|
g|-7-0-0-0--7-6h7---0-0-0----6h7-4-0-0-0--7-6h7-4----6-----7----|
c|---0-0-0----------0-0-0----------0-0-0-----------0---0-0------|
     . . .          . . .          . . .           .   . .
             Love can hurt and that´s no secret 


d|--------------------------------------------------------------|
a|--------------------------------------------------------------|
f|--------------------------------------------------------------|
c|----------------4--------4----------------------------4-------|
g|-7-0-0-0--7-6h7---0-0-0----6h7-4-0-0-0--7-6h7-4----6-----7----|
c|---0-0-0----------0-0-0----------0-0-0-----------0---0-0------|
 |   . . .          . . .          . . .           .   . .
 |
 |
 |
d|--------------------------------------------------------------|
a|--------------------------------------------------------------|
f|--------------------------------------------------------------|
c|----------------4--------4----------------------------7-------|
g|-7-0-0-0--7-6h7---0-0-0----6h7-4-0-0-0--7-6h7-4----9-----10---|
c|---0-0-0----------0-0-0----------0-0-0-----------0---0-0------|
     . . .          . . .          . . .           .   . .
             But how much pain can I forget


Chorus

d|----------------------------------------------|
a|----------------------------------------------|
f|---------------6/4----------------------------|
c|-------9/8-----4/2--3/5-----------------------|
g|-------7/6----------1/3-----------------------|
c|-00-00------00----------00-00-00-00-00-00-00--|
   .. ..      ..          .. .. .. .. .. .. ..
Everything, everything you let go- brings liberation


d|----------------------------------------------|
a|----------------------------------------------|
f|---------------6/4----------------------------|
c|-------9/8-----4/2--3/5-----------------------|
g|-------7/6----------1/3-----------------------|
c|-00-00------00----------00-00-00-00-00-00-00--|
   .. ..      ..          .. .. .. .. .. .. ..
Everything, everything- you let go.


d|----------------------------------------------|
a|----------------------------------------------|
f|---------------6/4----------------------------|
c|-------9/8-----4/2--3/5-----------------------|
g|-------7/6----------1/3-----------------------|
c|-00-00------00----------00-00-00-00-00-00-00--|
   .. ..      ..          .. .. .. .. .. .. ..
Everything, everything we let go-leads to salvation


d|----------------------------------------------|
a|----------------------------------------------|
f|---------------6/4----------------------------|
c|-------9/8-----4/2--3/5-----------------------|
g|-------7/6----------1/3-----------------------|
c|-00-00------00----------00-00-00-00-00-00-00--|
   .. ..      ..          .. .. .. .. .. .. ..
Everything, everything we let go


Fill

d|----------------|
a|----------------|
f|----------------|
c|-6-7--10-9-7-6--|
g|-6-7--10-9-7-6--|
c|-6-7--10-9-7-6--|
         . . . .


Verse 2
  
both guitars
d|----------------------------------------------------------|
a|----------------------------------------------------------|
f|----------------------------------------------------------|
c|----------------------------------------------------------|
g|-6-----7----6-----------------6-----7----6----------------|
c|-6-000-7-00-6-00000000000000--6-000-7-00-6-0111114444111--|
     ...   ..   ..............    ...   ..   .............
              The time we split I felt this anger

d|---------------------------------------------------------------------|
a|-----------------------------------9-9-10-10-13-13-12-12-10-10-9-9-9-|
f|-----------------------------------8-8-9--9--12-12-11-11-9--9--8-8-8-|
c|-----------------------------------6-6-7--7--10-10-9--9--7--7--6-6-6-|
g|-6-----7----6----------------------6-6-7--7--10-10-9--9--7--7--6-6-6-|
c|-6-000-7-00-6-0000000000000000000--6-6-7--7--10-10-9--9--7--7--6-6-6-|
     ...   ..   ...................
               you were my blaze but pulled my anchor


d|---------------------------------------------------------|
a|---------------------------------------------------------|
f|---------------------------------------------------------|
c|---------------------------------------------------------|
g|-6-----7----6-----------------6-----7----6---------------|
c|-6-000-7-00-6-00000000000000--6-000-7-00-6-0111114444111-| 
     ...   ..   ..............    ...   ..   .............
             Every cloud has a silver lining


d|---------------------------------------------------------------------|
a|-----------------------------------9-9-10-10-13-13-12-12-10-10-9-9-9-|
f|-----------------------------------8-8-9--9--12-12-11-11-9--9--8-8-8-|
c|-----------------------------------6-6-7--7--10-10-9--9--7--7--6-6-6-|
g|-6-----7----6----------------------6-6-7--7--10-10-9--9--7--7--6-6-6-|
c|-6-000-7-00-6-0000000000000000000--6-6-7--7--10-10-9--9--7--7--6-6-6-|
     ...   ..   ...................
             And that´s blessing in disguise


Chorus

d|----------------------------------------------|
a|----------------------------------------------|
f|---------------6/4----------------------------|
c|-------9/8-----4/2--3/5-----------------------|
g|-------7/6----------1/3-----------------------|
c|-00-00------00----------00-00-00-00-00-00-00--|
   .. ..      ..          .. .. .. .. .. .. ..
Everything, everything you let go- brings liberation


d|----------------------------------------------|
a|----------------------------------------------|
f|---------------6/4----------------------------|
c|-------9/8-----4/2--3/5-----------------------|
g|-------7/6----------1/3-----------------------|
c|-00-00------00----------00-00-00-00-00-00-00--|
   .. ..      ..          .. .. .. .. .. .. ..
Everything, everything- you let go.


d|----------------------------------------------|
a|----------------------------------------------|
f|---------------6/4----------------------------|
c|-------9/8-----4/2--3/5-----------------------|
g|-------7/6----------1/3-----------------------|
c|-00-00------00----------00-00-00-00-00-00-00--|
   .. ..      ..          .. .. .. .. .. .. ..
Everything, everything we let go-leads to salvation


d|----------------------------------------------|
a|----------------------------------------------|
f|---------------6/4----------------------------|
c|-------9/8-----4/2--3/5-----------------------|
g|-------7/6----------1/3-----------------------|
c|-00-00------00----------00-00-00-00-00-00-00--|
   .. ..      ..          .. .. .. .. .. .. ..
Everything, everything we let go



Fill

d|----------------------|
a|----------------------|
f|----------------------|
c|----------------------|
g|-0-0-6~~~---0-0-7~~~--|
c|-0-0-6~~~---0-0-7~~~--|
   . .        . .


Breakdown

 guitar 1
d|------------------------------------------------------------------------|
a|-----------------------------------------------------------------4-7----|
f|------------------------------------------------------------3-6---------|
c|-------------------------------------------------------2-5--------------|
g|-0-0-0-00000-0-0----------------0-0-0-00000-0-0---1-4-------------------|
g|-0-0-0-00000-0-0----------------0-0-0-00000-0-0-------------------------|
 | . . . ..... . .                . . . ..... . .
 |
 |
 |guitar 2
d|------------------------------------------------------------------------|
a|-----------------------------------------------------------------7-10---|
f|------------------------------------------------------------6-9---------|
c|-------------------------------------------------------5-8--------------|
g|-0-0-0-00000-0-0----------------0-0-0-00000-0-0---4-7-------------------|
c|-0-0-0-00000-0-0----------------0-0-0-00000-0-0-------------------------| 
   . . . ..... . .                . . . ..... . .
                 Liberation!!


d|------------------------------------------------------------------------|
a|-----------------------------------------------------------------4-7----|
f|------------------------------------------------------------3-6---------|
c|-------------------------------------------------------2-5--------------|
g|-0-0-0-00000-0-0----------------0-0-0-00000-0-0---1-4-------------------|
g|-0-0-0-00000-0-0----------------0-0-0-00000-0-0-------------------------|
 | . . . ..... . .                . . . ..... . .
 |
 |
 |guitar 2
d|------------------------------------------------------------------------|
a|-----------------------------------------------------------------7-10---|
f|------------------------------------------------------------6-9---------|
c|-------------------------------------------------------5-8--------------|
g|-0-0-0-00000-0-0----------------0-0-0-00000-0-0---4-7-------------------|
c|-0-0-0-00000-0-0----------------0-0-0-00000-0-0-------------------------| 
   . . . ..... . .                . . . ..... . .
                    Salvation


d|------------------------------------------------------------------------|
a|-----------------------------------------------------------------4-7----|
f|------------------------------------------------------------3-6---------|
c|-------------------------------------------------------2-5--------------|
g|-0-0-0-00000-0-0----------------0-0-0-00000-0-0---1-4-------------------|
c|-0-0-0-00000-0-0----------------0-0-0-00000-0-0-------------------------|
 | . . . ..... . .                . . . ..... . .
 |
 |
 |
d|------------------------------------------------------------------------|
a|-----------------------------------------------------------------7-10---|
f|------------------------------------------------------------6-9---------|
c|-------------------------------------------------------5-8--------------|
g|-0-0-0-00000-0-0----------------0-0-0-00000-0-0---4-7-------------------|
c|-0-0-0-00000-0-0----------------0-0-0-00000-0-0-------------------------| 
   . . . ..... . .                . . . ..... . .


Fill

d|--------|
a|--------|
f|--------|
c|--------|
g|-0-0-0--|
c|-0-0-0--|
   . . .


Verse 3

 
d|--------------------------------------------------------------|
a|--------------------------------------------------------------|
f|--------------------------------------------------------------|
c|----------------4--------4----------------------------4-------|
g|-7-0-0-0--7-6h7---0-0-0----6h7-4-0-0-0--7-6h7-4----6-----7----|
c|---0-0-0----------0-0-0----------0-0-0-----------0---0-0------|
 |   . . .          . . .          . . .           .   . .
 |
 |
 |
d|--------------------------------------------------------------|
a|--------------------------------------------------------------|
f|--------------------------------------------------------------|
c|----------------4--------4----------------------------4-------|
g|-7-0-0-0--7-6h7---0-0-0----6h7-4-0-0-0--7-6h7-4----6-----7----|
c|---0-0-0----------0-0-0----------0-0-0-----------0---0-0------|
     . . .          . . .          . . .           .   . .



d|--------------------------------------------------------------|
a|--------------------------------------------------------------|
f|--------------------------------------------------------------|
c|----------------4--------4----------------------------4-------|
g|-7-0-0-0--7-6h7---0-0-0----6h7-4-0-0-0--7-6h7-4----6-----7----|
c|---0-0-0----------0-0-0----------0-0-0-----------0---0-0------|
 |   . . .          . . .          . . .           .   . .
 |
 |
 |
d|--------------------------------------------------------------|
a|--------------------------------------------------------------|
f|--------------------------------------------------------------|
c|----------------4--------4----------------------------7-------|
g|-7-0-0-0--7-6h7---0-0-0----6h7-4-0-0-0--7-6h7-4----9-----10---|
c|---0-0-0----------0-0-0----------0-0-0-----------0---0-0------|
     . . .          . . .          . . .           .   . .

           


d|--------------------------------------------------------------|
a|--------------------------------------------------------------|
f|--------------------------------------------------------------|
c|----------------4--------4----------------------------4-------|
g|-7-0-0-0--7-6h7---0-0-0----6h7-4-0-0-0--7-6h7-4----6-----7----|
c|---0-0-0----------0-0-0----------0-0-0-----------0---0-0------|
 |   . . .          . . .          . . .           .   . .
 | 
 |
 |
d|--------------------------------------------------------------|
a|--------------------------------------------------------------|
f|--------------------------------------------------------------|
c|----------------4--------4----------------------------4-------|
g|-7-0-0-0--7-6h7---0-0-0----6h7-4-0-0-0--7-6h7-4----6-----7----|
c|---0-0-0----------0-0-0----------0-0-0-----------0---0-0------|
     . . .          . . .          . . .           .   . .
             When I remember the past sad grey days


d|--------------------------------------------------------------|
a|--------------------------------------------------------------|
f|--------------------------------------------------------------|
c|----------------4--------4----------------------------4-------|
g|-7-0-0-0--7-6h7---0-0-0----6h7-4-0-0-0--7-6h7-4----6-----7----|
c|---0-0-0----------0-0-0----------0-0-0-----------0---0-0------|
 |   . . .          . . .          . . .           .   . .
 |
 |
 |
d|--------------------------------------------------------------|
a|--------------------------------------------------------------|
f|--------------------------------------------------------------|
c|----------------4--------4----------------------------7-------|
g|-7-0-0-0--7-6h7---0-0-0----6h7-4-0-0-0--7-6h7-4----9-----10---|
c|---0-0-0----------0-0-0----------0-0-0-----------0---0-0------|
     . . .          . . .          . . .           .   . .
             The cold september when you said goodbye


then

d|----------------------------------------------|
a|----------------------------------------------|
f|---------------6/4----------------------------|
c|-------9/8-----4/2--3/5-----------------------|
g|-------7/6----------1/3-----------------------|
c|-00-00------00----------00-00-00-00-00-00-00--|
   .. ..      ..          .. .. .. .. .. .. ..
               Look in my eyes, 


d|----------------------------------------------|
a|----------------------------------------------|
f|---------------6/4----------------------------|
c|-------9/8-----4/2--3/5-----------------------|
g|-------7/6----------1/3-----------------------|
c|-00-00------00----------00-00-00-00-00-00-00--|
   .. ..      ..          .. .. .. .. .. .. ..
             a killing glance...



d|--------------------------------------------------------------|
a|--------------------------------------------------------------|
f|--------------------------------------------------------------|
c|----------------4--------4----------------------------4-------|
g|-7-0-0-0--7-6h7---0-0-0----6h7-4-0-0-0--7-6h7-4----6-----7----|
c|---0-0-0----------0-0-0----------0-0-0-----------0---0-0------|
 |   . . .          . . .          . . .           .   . .
 | 
 |
 |
d|--------------------------------------------------------------|
a|--------------------------------------------------------------|
f|--------------------------------------------------------------|
c|----------------4--------4----------------------------4-------|
g|-7-0-0-0--7-6h7---0-0-0----6h7-4-0-0-0--7-6h7-4----6-----7----|
c|---0-0-0----------0-0-0----------0-0-0-----------0---0-0------|
     . . .          . . .          . . .           .   . .
              Every end is a new beginning


d|--------------------------------------------------------------|
a|--------------------------------------------------------------|
f|--------------------------------------------------------------|
c|----------------4--------4----------------------------4-------|
g|-7-0-0-0--7-6h7---0-0-0----6h7-4-0-0-0--7-6h7-4----6-----7----|
c|---0-0-0----------0-0-0----------0-0-0-----------0---0-0------|
 |   . . .          . . .          . . .           .   . .
 |
 |
 |
d|--------------------------------------------------------------|
a|--------------------------------------------------------------|
f|--------------------------------------------------------------|
c|----------------4--------4----------------------------7-------|
g|-7-0-0-0--7-6h7---0-0-0----6h7-4-0-0-0--7-6h7-4----9-----10---|
c|---0-0-0----------0-0-0----------0-0-0-----------0---0-0------|
     . . .          . . .          . . .           .   . .
           I´m looking forward to rise from the dust            


Chorus

d|----------------------------------------------|
a|----------------------------------------------|
f|---------------6/4----------------------------|
c|-------9/8-----4/2--3/5-----------------------|
g|-------7/6----------1/3-----------------------|
c|-00-00------00----------00-00-00-00-00-00-00--|
   .. ..      ..          .. .. .. .. .. .. ..
Everything, everything you let go- brings liberation


d|----------------------------------------------|
a|----------------------------------------------|
f|---------------6/4----------------------------|
c|-------9/8-----4/2--3/5-----------------------|
g|-------7/6----------1/3-----------------------|
c|-00-00------00----------00-00-00-00-00-00-00--|
   .. ..      ..          .. .. .. .. .. .. ..
Everything, everything- you let go.


d|----------------------------------------------|
a|----------------------------------------------|
f|---------------6/4----------------------------|
c|-------9/8-----4/2--3/5-----------------------|
g|-------7/6----------1/3-----------------------|
c|-00-00------00----------00-00-00-00-00-00-00--|
   .. ..      ..          .. .. .. .. .. .. ..
Everything, everything we let go-leads to salvation


d|----------------------------------------------|
a|----------------------------------------------|
f|---------------6/4----------------------------|
c|-------9/8-----4/2--3/5-----------------------|
g|-------7/6----------1/3-----------------------|
c|-00-00------00----------00-00-00-00-00-00-00--|
   .. ..      ..          .. .. .. .. .. .. ..
Everything, everything we let go


End

d|----------------|
a|----------------|
f|----------------|
c|-6-7--10-9-7-6--|
g|-6-7--10-9-7-6--|
c|-6-7--10-9-7-6--|    

Added On December 16th, 2013

SHARE

Comments

blog comments powered by Disqus

VERSIONS

ADVERTISEMENT