Carpark North Tabs

Shutdown

1 versions

TAB

            Shutdown - Carpark North.

Intro:
     E  E  Q    H           H        H           H        H         
E||----------------------|--------------------|--------------------|
B||--4--6--7----6--------|--4-----------------|--------------------|
G||----------------------|-----------6--------|--4--------3--------|
D||----------------------|--------------------|--------------------|
A||----------------------|--------------------|--------------------|
E||----------------------|--------------------|--------------------|

  H        H             E  E  E  E  E  E  E  E     E  E  E  E  E  E  E  S S  
--------------------||---------------------------|---------------------------|
--------------------||---7--7--7--7--7--7--7--7--|--7--6--6--6--6--6--6--6-7-|
--------------------||*--8--8--8--8--8--8--8--8--|--8--8--8--8--8--8--8--8-L-|
--6--------4--------||*--8--8--8--8--8--8--8--8--|--8--8--8--8--8--8--8--8-L-|
--------------------||---------------------------|---------------------------|
--------------------||---------------------------|---------------------------|

  E  E  E  E  E  E  E  E     E  E  E  E  E  E  E  E     
--------------------------|---------------------------||
--9--9--9--9--9--9--9--9--|--9--9--9--9--9--9--9--9---||
--8--8--8--8--8--8--8--8--|--8--8--8--8--8--8--8--8--*||
--6--6--6--6--6--6--6--6--|--6--9--9--9--9--9--9--9--*||
--------------------------|---------------------------||
--------------------------|---------------------------||


Verse 1:
    E  E  E  E  E  E  E  E     E  E  E  E  E  E  E  S S  
|---------------------------|---------------------------|
|---7--7--7--7--7--7--7--7--|--7--6--6--6--6--6--6--6-7-|
|*--8--8--8--8--8--8--8--8--|--8--8--8--8--8--8--8--8-L-|
|*--8--8--8--8--8--8--8--8--|--8--8--8--8--8--8--8--8-L-|
|---------------------------|---------------------------|
|---------------------------|---------------------------|

  E  E  E  E  E  E  E  E     E  E  E  E  E  E  E  E   4x   
--------------------------|---------------------------||
--9--9--9--9--9--9--9--9--|--9--9--9--9--9--9--9--9---||
--8--8--8--8--8--8--8--8--|--8--8--8--8--8--8--8--8--*||
--6--6--6--6--6--6--6--6--|--6--9--9--9--9--9--9--9--*||
--------------------------|---------------------------||
--------------------------|---------------------------||

Goodbye, my favourite friend, 
I hope we'll meet again, all right. 
I'm glad that you came tonight. 

I have enjoyed the show, 
but it's time, I'm letting go, you know.
And I hope this memory will last. 

And I am not afraid.


Chorus:	||:B|C#|D#m|D#m:||
I shutdown, I shutdown.
I shutdown, And I am not afraid.


Verse 2:
    E  E  E  E  E  E  E  E     E  E  E  E  E  E  E  S S  
|---------------------------|---------------------------|
|---7--7--7--7--7--7--7--7--|--7--6--6--6--6--6--6--6-7-|
|*--8--8--8--8--8--8--8--8--|--8--8--8--8--8--8--8--8-L-|
|*--8--8--8--8--8--8--8--8--|--8--8--8--8--8--8--8--8-L-|
|---------------------------|---------------------------|
|---------------------------|---------------------------|

  E  E  E  E  E  E  E  E     E  E  E  E  E  E  E  E   4x   
--------------------------|---------------------------||
--9--9--9--9--9--9--9--9--|--9--9--9--9--9--9--9--9---||
--8--8--8--8--8--8--8--8--|--8--8--8--8--8--8--8--8--*||
--6--6--6--6--6--6--6--6--|--6--9--9--9--9--9--9--9--*||
--------------------------|---------------------------||
--------------------------|---------------------------||

So long, my favourite friend, 
I'm sure we'll meet again, all right. 
And I'm glad that you were by my side. 

You've been the very best, 
but it's time for me to rest, you know.
I never liked goodbyes.

Don't ever be afraid.

Chorus:	||:B|C#|D#m|D#m:||x4 (efterfulgt af et lille break)
I shutdown, I shutdown. x8

Chorus continued:	||:B|C#|D#m|D#m:||x10
I shutdown, I shutdown. x20

Outro chorus:
I shutdown. x3    

Added On December 16th, 2013

SHARE

Comments

blog comments powered by Disqus

ADVERTISEMENT