Cartel Tabs

Runaway

1 versions

TAB

            Runaway Tab by Cartel


Yea i know the solo isn't completed, but it's pretty damn good, even for me, and it's a 
so one of you can post the rest of it.

Verse:

Face down...
e|-----------------------------------------------------|
B|-----------------------------------------------------|
G|--5555555555555555-10101010101010101010101010101010--|
D|--5555555555555555-10101010101010101010101010101010--|
A|--3333333333333333--8-8-8-8-8-8-8-8-8-8-8-8-8-8-8-8--|
E|-----------------------------------------------------|
    ................  . . . . . . . . . . . . . . . .

e|-----------------------------------------------------|
B|-----------------------------------------------------|
G|--5555555555555555--8888888888888888-----------------|
D|--5555555555555555--8888888888888888-----------------|
A|--3333333333333333--6666666666666666-----------------|
E|-----------------------------------------------------|
    ................  ................

Stop now...
e|-----------------------------------------------------|
B|-----------------------------------------------------|
G|--5555555555555555-10101010101010101010101010101010--|
D|--5555555555555555-10101010101010101010101010101010--|
A|--3333333333333333--8-8-8-8-8-8-8-8-8-8-8-8-8-8-8-8--|
E|-----------------------------------------------------|

    ................  . . . . . . . . . . . . . . . .

e|------------------------|
B|------------------------|
G|--5555555555555555------|
D|--5555555555555555--6~--|
A|--3333333333333333--6~--|
E|--------------------4~--|
    ................

Chorus:

Runaway...
e|--------------|
B|--------------|
G|--8~----------|
D|--8~--6~--3~--|
A|--6~--6~--3~--|
E|------4~--1~--|

You get...
e|------------------|
B|------------------|
G|------------------|
D|--6--88-1010--88--|
A|--6--88-1010--88--|
E|--4--66--8-8--66--|

Then this is the part between the chorus and the next verse
e|--------------------|
B|--------------------|
G|--------------------|
D|--8888888888888888--|
A|--8888888888888888--|
E|--6666666666666666--|
    ................

Verse:

Hush now...
e|------------------------------------------------------|
B|------------------------------------------------------|
G|--5555555555555555--10101010101010101010101010101010--|
D|--5555555555555555--10101010101010101010101010101010--|
A|--3333333333333333---8-8-8-8-8-8-8-8-8-8-8-8-8-8-8-8--|
E|------------------------------------------------------|
    ................   . . . . . . . . . . . . . . . .

e|------------------------------------------------------|
B|------------------------------------------------------|
G|--5555555555555555--8888888888888888------------------|
D|--5555555555555555--8888888888888888------------------|
A|--3333333333333333--6666666666666666------------------|
E|------------------------------------------------------|
    ................  ................

Speak now...
e|-----------------------------------------------------|
B|-----------------------------------------------------|
G|--5555555555555555-10101010101010101010101010101010--|
D|--5555555555555555-10101010101010101010101010101010--|
A|--3333333333333333--8-8-8-8-8-8-8-8-8-8-8-8-8-8-8-8--|
E|-----------------------------------------------------|
    ................  . . . . . . . . . . . . . . . .

e|--------------------------------------|
B|--------------------------------------|
G|--5555555555555555--------------------|
D|--5555555555555555--6666666666666666--|
A|--3333333333333333--6666666666666666--|
E|--------------------4444444444444444--|
    ................  ................

And the other guitar plays this three times
e|-----------------|
B|-----------------|
G|----8--8--8--88--|
D|----x--x--x--xx--|
A|----6--6--6--66--|
E|-----------------|

Then this
e|--------------------|
B|--------------------|
G|--8888888888888888--|
D|--xxxxxxxxxxxxxxxx--|
A|--6666666666666666--|
E|--------------------|

Chorus:

Runaway...
e|--------------------------------------------------------|
B|--------------------------------------------------------|
G|--------------------------------------------------------|
D|--8888888888888888--------------------------------------|
A|--8888888888888888--6666666666666666--3333333333333333--|
E|--6666666666666666--6666666666666666--3333333333333333--|
E|--------------------4444444444444444--1111111111111111--|

You get...
e|------------------|
B|------------------|
G|------------------|
D|--6--88-1010--88--|
A|--6--88-1010--88--|
E|--4--66--8-8--66--|

Runaway...
e|--------------------------------------------------------|
B|--------------------------------------------------------|
G|--------------------------------------------------------|
D|--8888888888888888--------------------------------------|
A|--8888888888888888--6666666666666666--3333333333333333--|
E|--6666666666666666--6666666666666666--3333333333333333--|
E|--------------------4444444444444444--1111111111111111--|

You get...
e|------------------|
B|------------------|
G|------------------|
D|--6--88-1010--88--|
A|--6--88-1010--88--|
E|--4--66--8-8--66--|

The other guitar goes like this
e|-----------------------|
B|-----------------------|
G|--8--1010--1212--1010--|
D|-----------------------|
A|-----------------------|
E|-----------------------|

Solo:
e|--------------------------------|
B|--------------------------------|
G|--12~--15-12-15-10-8h10----8~---|
D|------------------------10------|
A|--------------------------------|
E|--------------------------------|

e|--------------------------------|
B|--------------------------------|
G|--12p10-8----8-10-12p10-8----8--|
D|----------10--------------10----|
A|--------------------------------|
E|--------------------------------|

e|-------------------------------|
B|-------------------------------|
G|-------------------------------|
D|---------------------------8~--|
A|--3-5-6-6-8-10-6-8-10-11-8-----|
E|-------------------------------|

e|-------------------------------------|
B|-------------------------------------|
G|--10-1212-12h1312-1010-101010-12-----|
D|---------------------------------10~-|
A|-------------------------------------|
E|-------------------------------------|

And that's all i got but it's a start. Sorry

Verse:

Speak now
e|-----------------------------------------------------|
B|-----------------------------------------------------|
G|--5555555555555555-10101010101010101010101010101010--|
D|--5555555555555555-10101010101010101010101010101010--|
A|--3333333333333333--8-8-8-8-8-8-8-8-8-8-8-8-8-8-8-8--|
E|-----------------------------------------------------|
    ................  . . . . . . . . . . . . . . . .

e|------------------------|
B|------------------------|
G|--5555555555555555------|
D|--5555555555555555--6~--|
A|--3333333333333333--6~--|
E|--------------------4~--|
    ................

Chorus:

Runaway...
e|--------------------------------------------------------|
B|--------------------------------------------------------|
G|--------------------------------------------------------|
D|--8888888888888888--------------------------------------|
A|--8888888888888888--6666666666666666--3333333333333333--|
E|--6666666666666666--6666666666666666--3333333333333333--|
E|--------------------4444444444444444--1111111111111111--|

You get...
e|------------------|
B|------------------|
G|------------------|
D|--6--88-1010--88--|
A|--6--88-1010--88--|
E|--4--66--8-8--66--|

Then the first part again. And the second part again. Then this.
e|---------------------|
B|---------------------|
G|---------------------|
D|--6--88-1010--33333--|
A|--6--88-1010--33333--|
E|--4--66--8-8--11111--|

e|-----------------------------------------|
B|-----------------------------------------|
G|-----------------------------------------|
D|--6--88-101010101010101010--88888888-6~--|
A|--6--88-101010101010101010--88888888-6~--|
E|--4--66--8-8-8-8-8-8-8-8-8--66666666-4~--|

Then that's it. I hope all of you like it. It is my first tab. So don't make that much 
out of it. You can email me at heyskateboarder@aol.com, so have fun.    

Added On December 4th, 2013

SHARE

Comments

blog comments powered by Disqus

ADVERTISEMENT