Cartel Tabs

Wasted

2 versions

TAB

            Cartel - Wasted

hey this is what ive figured out for this song
its isnt much, but then again theres barely any guitar in it
feedback would be appreciated

just want to say im not sure about the first note in the verse
i think it should sound lower, but no note seems to fit it except that one
so ill just leave it at that

i can hear some guitar in the bridge, but ive yet to figure it out
ill update this tab as soon as i do figure it out

enjoy!



Verses
eb|-----------------------------------------|
Bb|-------8---6-5-----5---------------------|
Gb|-----7-----------7---7-------------------|_just repeat as many times as necessary
Db|---7-------------------------------------|
Ab|-----------------------------------------|
Db|-----------------------------------------|

Chorus
eb|----------------------|
Bb|-------8--------------|
Gb|-----7----------------|_repeat until you come back to the verse
Db|---7------------------|
Ab|----------------------|
Db|----------------------|    

Added On December 16th, 2013

SHARE

Comments

blog comments powered by Disqus

VERSIONS

ADVERTISEMENT