Charlie Hall Tabs

Marvelous Light

4 versions

TAB

            -------------------------------------------------------------------------------
			     Marvelous Light - Charlie Hall
-------------------------------------------------------------------------------
Tabbed by:jman
Email:sk8rdude181@yahoo.com


I am tabbing the electric guitar part of the song because the acoustic part is covered 
the other tabs and im not sure where my capo is so i cant tell you for sure what it is.

Tuning:standard          Play this part right after the intro.

e|---------------------------------------------------------------------------------|
B|---------------------------------------------------------------------------------|
G|-----5-----------------------------------------4---------------------------------|
D|-----5---------------------2-------------------5-----------------2---------------|
A|-----3---------------------2-------------------5-----------------2---------------|
E|---------------------------0-------------------3-----------------0---------------|

                                 Pre-chorus

e|----------------------------------------------------------------------------|
B|----------------------------------------------------------------------------|
G|----------------------------------------------------------------------------|
D|---6----------4----------2--------------6----------4----------2------22222--|
A|---6----------4----------2--------------6----------4----------2------22222--|
E|---4----------2----------0--------------4----------2----------0------00000--|


                                 Chorus

e|-----------------------------------------------------|
B|-----------------------------------------------------|
G|----5------------------------------------------------|
D|----5---------2-------------6----------4----------2--|   repeat a lot of times
A|----3---------2-------------6----------4----------2--|
E|--------------0-------------4----------2----------0--|
                       then play the same thing on the bridge

 Thats all i got, this is my first tab, so nothing is set in stone. if you have corrections email me.    

Added On December 16th, 2013

SHARE

Comments

blog comments powered by Disqus

VERSIONS

ADVERTISEMENT