Chevelle Tabs

Wonder Whats Next Intro

1 versions

TAB

            Wonder Whats Next Tab by Chevelle


b-0-3-0-5-6-6--0-5--0-6-6-|
f-------------------------|
b-------------------------|
e-------------------------|
g-------------------------|
c-------------------------|

b-0-3-0-5-6-6--0-5--0-6-6-|
f-------------------------|
b-------------------------|
e-------------------------|
g-------------------------|
c-------------------------|

then the second guitar cums in

b-0-3-0-5-6-6--0-5-0-6-6-|
f-2-5-2-7-8-8--2-7-2-8-8-|
b------------------------|   Repeat over and over
e------------------------|
g------------------------|
c------------------------|    

Added On December 4th, 2013

SHARE

Comments

blog comments powered by Disqus

ADVERTISEMENT