Chthonic Tabs

Satans Horns

1 versions

TAB

            Can't believe no one has tabbed this awesome song sorry no solo

Chthonic
Satans horns
Freddy vs. Jason taiwanese soundtrack

Drop d tuning

|-------------------------------------------|
|-------------------------------------------|
|-------------------------------------------|
|-------------------------------------------|
|----------------------------------7h8------|
|-000000000---000000000---------------------|
    . . . . . . . . .    . . . . . . . . .

|-----------------------------------|
|-----------------------------------|
|-----------------------------------|
|-----------------------------------|
|9-10-9-10--------------------------|
|7-8---7-8--------------------------|

|-------------------------------------------|
|-------------------------------------------|
|-------------------------------------------|
|------------------------------------9------|
|----9---10--9-10----10---9------10---------|
|77---7----7-------88----8---8--------------|
  . .     .       .          . .      .     .

|-------------------------------------------------------|
|-------------------------------------------------------|
|-------------------------------------------------------|
|-------------------------999-777-----------------------|
|-----10-----9------10-----------101010-9999------------|
|777---777---777----------------------------------------|
  . . .     . . .    . . .      . . .  . . .   .   .  .    . . . .

|-------------------------------------------------------------------------|
|-------------------------------------------------------------------------|
|-------------------------------------------------------------------------|
|-----------------999-777-----------------999-777-------------------------|
|-----10------9------------101010-999------------101010-999---------------|
|888----888---------------------------------------------------------------|
  . . .      . . .    . . .   . . .   .   .   .   . . .  . . .  . . .   .   .   .   . . .    

Added On December 16th, 2013

SHARE

Comments

blog comments powered by Disqus

ADVERTISEMENT