Circa Survive Tabs

Travel Hymn

2 versions

TAB

            this is my first tab. this is only one of the guitars its coming out of the right speaker.

intro

eb -------------------------------------------------------------------------|
Bb---5---7-----------7-------5-----7------------7---------------------------|
Gb----------4----7---------------------4---7--------------------------------|
Db--------------------------------------------------------------------------|
Ab--------------------------------------------------------------------------|
EB--------------------------------------------------------------------------|


verse
Eb--------------------------------------------------------------------------|
Bb----5---7----------7------5-----7--------------7-------0------------------|
Gb-----------4---7--------------------4-----7---------------0---------------|
Db--------------------------------------------------7--9-------9------------|
Ab--------------------------------------------------------------------------|
Eb--------------------------------------------------------------------------|

pre chorus
Eb-----------------------5---------------5----------------------------------|
Bb---8---7--5----5---7-------7----5---7-----7-------------------------------|
Gb--------------------------------------------------------------------------|
Db--------------------------------------------------------------------------|
Ab--------------------------------------------------------------------------|
Eb--------------------------------------------------------------------------|

chorus strumming not correct
Eb--------------------------------------------------------------------------|
Bb--------------------------------------------------------------------------|
Gb---11----7--7----9--9----4---6--6---6---------11-----14-------------------|
Db---------------------------------------3x---------------------------------|
Ab---9-----5--5----7--7---2---4---4---4---------9------12-------------------|
Eb--------------------------------------------------------------------------|

the pre verse is generally like the verse

verse
pre chorus
chrous

bridge just listen to figure out when to do what an the srtumming
Eb--------------------------------------------------------------------------|
Bb----10---12-----------14---15-----15---17------17----19-------------------|
Gb--------------------------------------------------------------------------|
Db--------------------------------------------------------------------------|
Ab--------------------------------------------------------------------------|
Eb--------------------------------------------------------------------------|    

Added On December 16th, 2013

SHARE

Comments

blog comments powered by Disqus

VERSIONS

ADVERTISEMENT