Close To Home Tabs

Replay

1 versions

TAB

            Close to Home
Replay (Iyaz Cover)

This is my first tab so cut me some slack. Questions, comments, corrections email 
me at guitarfreak2595@aol.com


Tuning: Drop C
Legend: ~ Let Ring
        / Slide Up
        \ Slide Down
        * Palm Mute

Intro

D|-------------------------------------------------------------|
A|-------------------------------------------------------------|
F|--------------------2~---------------------------2~----------|
C|------4~-----0~---2-------2~------4~------0~---2--------2~---|
G|----4------0----0-------2-------4-------0----0----------2~---|
C|--4------0------------2-------4-------0-----------------2~---|

Chorus (x2)

D|-------------------------------------|
A|-------------------------------------|
F|--------------------2-2-2-2----------|
C|--4-4-4-4--0-0-0-0--2-2-2-2--2-2-2-2-|
G|--4-4-4-4--0-0-0-0--0-0-0-0--2-2-2-2-|
C|--4-4-4-4--0-0-0-0-----------2-2-2-2-|

Verse Pt. 1 (x2)

D|------------------------------------|
A|------------------------------------|
F|------------------------------------|
C|--444-44--00-0000--777-77--22-2222--|
G|--444-44--00-0000--777-77--22-2222--|
C|--444-44--00-0000--777-77--22-2222--|
    *** **  ** ****  *** **  ** ****

Verse Pt. 2 (x2)

D|------------------------------------------|
A|------------------------------------------|
F|----6---6-----7---7-----9---9-----4---4---|
C|--44444444--00000000--77777777--22222222--|
G|--44444444--00000000--77777777--22222222--|
C|--44444444--00000000--77777777--22222222--|
    ** *** *  ** *** *  ** *** *  ** *** *

Pre-Chorus

D|----------------------------------------|
A|----------------------------------------|
F|-----6/5--------777\6----6\4------------|
C|--44-X/X-4444-4-xxx\x-00-X\X-22-222222--|
G|--44-4/5-4444-4-555\4-00-4\2-22-222222--|
C|--44-----4444-4-------00-----22-222222--|
    **     **** *       **     ** ******

Chorus (x2)

Chorus Pt. 2 (x2)

D|----------------|
A|----------------|
F|----------------|
C|--44--0--77--2--|
G|--44--0--77--2--|
C|--44--0--77--2--|
        *      *

Verse Pt. 1(x2)

Verse Pt. 2(x2)

Pre-Chorus(x2)

Chorus (x2)

Chorus Pt. 2 (x2)

Interlude Pt. 1 (x2)

D|-------------------------------|
A|-------------------------------|
F|-------6~-----7~-----2~-----4--|
C|-------------------2-----------|
G|----4------0-----0-------2-----|
C|--4------0-------------2-------|

Interlude Pt. 2   

                       Guitar 2 2nd Time
D|--------------------|---------|
A|--------------------|---------|
F|-------7~-----------|6\4/7\6--|
C|--4~---7~---7~---2~-|X\X/X\X--|
G|--4~---5~---7~---2~-|4\2/5\4--|
C|--4~--------7~---2~-|---------|

(havent worked out what guitar 2 is playing behind yet)

Breakdown (on and on..) (x2

D|---------------------------|
A|---------------------------|
F|---------------------------|
C|--44-44-00000-77-77-22222--|
G|--44-44-00000-77-77-22222--|
C|--44-44-00000-77-77-22222--|
    ** ** ***** ** ** *****

Pre-Chorus (Variation)(x2)

D|---------------------|
A|---------------------|
F|---------------------|
C|--4~---0~---7~---2~--|
G|--4~---0~---7~---2~--|
C|--4~---0~---7~---2~--|

Chorus (x2)

Chorus Pt. 2 (x2)

END    

Added On December 16th, 2013

SHARE

Comments

blog comments powered by Disqus

ADVERTISEMENT