Coal Chamber Tabs

Rowboat

3 versions

TAB

            Row Boat Tab by Coal Chamber


Tabbed by Alexy "Static-X 915789"

Artist: Coal Chamber
Title : Row Boat
Album : Dark Days

Tuning:
6-String:B,E,A,D,G,B     (all strings 6 half-steps down)
7-String:B,E,A,D,G,B,E   (common 7-String Guitar tuning)

***I write all in a 7-String tabulature...if you only have a 6-String    
guitar...it doesn't matter...you won't need the high e string***


~ = let strings ring
* = stop ringing strings


E|----------------|----------------|----------------|
B|----------------|----------------|----------------|
G|----------------|----------------|----------------|
D|----------------|----------------|----------------|
A|4~-5*-----------|4~-5*----------4~-5*-------------|
E|4~-5*-----------|4~-5*----------4~-5*-------------|
B|2~-3*-----------|2~-3*----------2~-3*-------------|


E|----------------|----------------|2 times
B|----------------|----------------|
G|----------------|----------------|
D|----------------|----------------|
A|4~-5*-----------|4~-5*-----------|
E|4~-5*-----------|4~-5*-----------|
B|2~-3*-----------|2~-3*-----------|


E|----------------|----------------|2 times
B|----------------|----------------|
G|----------------|----------------|
D|----------------|----------------|
A|4~-5*-----------|4~-5*-----------|
E|4~-5*-----------|4~-5*-----------|
B|2~-3*-----------|2~-3*-----------|


E|----------------|----------------|2 times
B|----------------|----------------|
G|----------------|----------------|
D|----------------|----------------|
A|4~-5*-----------|4~-5*-----------|
E|4~-5*-----------|4~-5*-----------|
B|2~-3*-----------|2~-3*-----------|


E|----------------|----------------|2 times
B|----------------|----------------|
G|----------------|----------------|
D|----------------|----------------|
A|4-45-55554254254|4-45-55554254254|
E|4-45-55554254254|4-45-55554254254|
B|2-23-33332032032|2-23-33332032032|
       

E|----------------|----------------|
B|----------------|----------------|
G|----------------|----------------|
D|----------------|----------------|
A|4~-5*-----------|4~-5*-----------|
E|4~-5*-----------|4~-5*-----------|
B|2~-3*-----------|2~-3*-----------|


E|----------------|----------------|2 times
B|----------------|----------------|
G|----------------|----------------|
D|----------------|----------------|
A|4~-5*-----------|4~-5*-----------|
E|4~-5*-----------|4~-5*-----------|
B|2~-3*-----------|2~-3*-----------|



E|----------------|----------------|2 times
B|----------------|----------------|
G|----------------|----------------|
D|----------------|----------------|
A|4~-5*-----------|4~-5*-----------|
E|4~-5*-----------|4~-5*-----------|
B|2~-3*-----------|2~-3*-----------|


E|----------------|----------------|2 times
B|----------------|----------------|
G|----------------|----------------|
D|----------------|----------------|
A|4-45-55554254254|4-45-55554254254|
E|4-45-55554254254|4-45-55554254254|
B|2-23-33332032032|2-23-33332032032|


E|----------------|----------------|2 times
B|----------------|----------------|
G|----------------|----------------|
D|----------------|----------------|
A|4-45-55554254254|4-45-55554254254|
E|4-45-55554254254|4-45-55554254254|
B|2-23-33332032032|2-23-33332032032|


B|----------------|----------------|----------------|
G|----------------|----------------|----------------|
D|----------------|----------------|----------------|
A|4~-5~-----------|4~-5~-----------|4~-5*-----------|
E|4~-5~-----------|4~-5~-----------|4~-5*-----------|
B|2~-3~-----------|2~-3~-----------|2~-3*-----------|


E|----------------|----------------|2 times
B|----------------|----------------|
G|----------------|----------------|
D|----------------|----------------|
A|44-55-77-99-1099|44-55-77-99-109-|
E|44-55-77-99-1099|44-55-77-99-109-|
B|22-33-55-77-8-77|22-33-55-77-8-7-|


E|----------------|----------------|2 times
B|----------------|----------------|
G|----------------|----------------|
D|----------------|----------------|
A|44-55-77-99-1099|44-55-77-99-109-|
E|44-55-77-99-1099|44-55-77-99-109-|
B|22-33-55-77-8-77|22-33-55-77-8-7-|


E|----------------|----------------|2 times
B|----------------|----------------|
G|----------------|----------------|
D|----------------|----------------|
A|4-45-55554254254|4-45-55554254254|
E|4-45-55554254254|4-45-55554254254|
B|2-23-33332032032|2-23-33332032032|


E|----------------|----------------|
B|----------------|----------------|
G|----------------|----------------|
D|----------------|----------------|
A|44-55-77-88-9-88|44-55-77-88-9-8-|
E|44-55-77-88-9-88|44-55-77-88-9-8-|
B|22-33-55-77-8-77|22-33-55-77-8-7-|


B|----------------|
G|----------------|
D|----------------|
A|4~-5~-----------|
E|4~-5~-----------|
B|2~-3~-----------| get out,get out,get out of mine.....


enjoy...my first tab here...play guitar since febuary 2002 so please gimme some tips 
for writing own song:  

Roofharm@aol.com
ICQ#:151738240Rowboat Tab by Coal Chamber


Coal Chamber - Rowboat
Tabbed By: Mike Castaneda
EMail: slipknot_purity@hotmail.com


this is an awesome song i usually play bass but i play on my lil bros
guitar but this is and ultra easy song but it sounds so killer.  Use
heavy distortion and standard tuning.  I only have the main part of the
main part of the song so you can figure out the rest.  Take it easy.

a-2--2--2--2
e-0--3--0--3      repeat am many times as necessary    

Added On December 4th, 2013

SHARE

Comments

blog comments powered by Disqus

VERSIONS

ADVERTISEMENT