Cobra Starship Tabs

Smile For The Paparazzi

1 versions

TAB

            Smile For the paparazzi - Cobra Starship


intro- just strum once

e|----|
B|----|
G|----|
D|-11-|
A|-11-|
E|-9--|


Verse consists of these two chords:

e|---------------|
B|---------------|
G|-11---10-------|
D|-11---10-------|
A|-9----8--------|
E|---------------|



Chorus

B|-------------------------|
G|-----7-6-----------------|
D|-4-7-7-6-----------------|
A|-4-7-5-4-----------------|
E|-2-5---------------------|

The paparazzi bit

B|---------------|
G|------4--------|
D|-7----4--------|
A|-7----2--------|
E|-5-------------|


I couldn't work out the solo.
I will try later.


Any problems with the tab email me at grayscalejunior@btinternet.com    

Added On December 16th, 2013

SHARE

Comments

blog comments powered by Disqus

ADVERTISEMENT