Coheed And Cambria Tabs

I Shall Be Released

2 versions

TAB

            -------------------------------------------------------------------------------
			     I SHALL BE RELEASED - Coheed and Cambria
-------------------------------------------------------------------------------
Tabbed by: Tyler Turner
Email: tturner.music@gmail.com

Tuning: Standard

So this is the version of  "I Shall Be Released" that Coheed covered.
Strum pattern is pretty easy to figure out by listening to the song.

Chord Progression (Same throughout song)
   E         F#       A        F# A  E
e|--------|--------|--------|--------------|---------------------------------|
B|--------|--------|--------|--------------|---------------------------------|
G|--1-----|--------|--------|--------1-----|---------------------------------|
D|--2-----|--4-----|--5-----|--4--7--2-----|---------------------------------|
A|--2-----|--4-----|--5-----|--4--7--2-----|---------------------------------|
E|--0-----|--2-----|--3-----|--2--5--0-----|---------------------------------|

Solo
e|---------|--------------------------------------|---------------------------|
B|--12^----|--------------------------------------|---------------------------|
G|---------|--13-14-13-11-----11\13-11------------|--13-14-13-11----13-14-13--|
D|---------|--------------14-----------14-11-11~--|--------------14-----------|
A|---------|--------------------------------------|---------------------------|
E|---------|--------------------------------------|---------------------------|
                           .                                      .
e|-----------------|-----------------------------------------------------------|
B|-----------------|-17-16-14-12------------12~--------------------------------|
G|-11----14-14-13~-|-------------14~--13-14------14-13-11~--11-13-14-13-11-11~-|
D|----14-----------|-----------------------------------------------------------|
A|-----------------|-----------------------------------------------------------|
E|-----------------|-----------------------------------------------------------|
      .
e|----------------------------------|
B|-12-14-16-14-12~------------------|
G|------------------14-13-14p13-----|
D|----------------------------------|
A|----------------------------------|
E|----------------------------------|
   .  .  .  .        . .

Outro - Chords, let ring


| /  slide up
| \  slide down
| h  hammer-on
| p  pull-off
| ~  vibrato
| +  harmonic
| x  Mute note
| .  Staccato
===============================================================================    

Added On December 16th, 2013

SHARE

Comments

blog comments powered by Disqus

VERSIONS

ADVERTISEMENT