Coheed And Cambria Tabs

The Velourium Camper Ii_ Backend Of Forever

2 versions

TAB

            There was no option for it, but let me tell you right from the start, this is the tab
the 1st verse played by Travis in "The Velourium camper II: Backend of Forever". I made
for my own use because no one could tab it right, but everything here is 100% correct 
rather than deleting it, I'll submit it. Please remember this is UNOFFICIAL! Coheed &
didn't give me any of this information to tab, I did it myself.

Song: The Velourium camper II: Backend of Forever
Artist: Coheed & Cambria
Album: In Keeping Secret of Silent Earth: 3
Track Number: 8
Song Length: 5:22
The song, not the tab, is © 2003 Equal Vision Records

E-mail: burnttoast921@yahoo.com
Tabbed by: Otownsevenfold

Tuning: Standard (EADGBe)


Start point: 0:06
End Point: 1:02

          Claudio plays this in the background
e|-------------------------| e|-------------------------|
B|-------------------------| B|-------------------------|
G|---0-1-3-0-1---0---------| G|---3-4-6-3-4---3---------|
D|-------------3---1-3-0-1-| D|-------------6---4-6-3-4-|
A|-3-----------------------| A|-6-----------------------|
E|-------------------------| E|-------------------------|
   . . . . . . . . . . . .       . . . . . . . . . . . .

e|-------------------------------------------------------------------------|
B|-------------------------------------------------------------------------|
G|-------------------------------------------------------------------------|
D|-3~-----------------55-5---66-6---88-8---99-9---55-5--66-6---55-5---88-8-|
A|-1~-----------------33-3---55-5---66-6---88-8---33-3--55-5---66-6---55-5-|
E|-------------------------------------------------------------------------|

"Rocked, silent, in a soft lullaby. Panic stirred me awaken; by a ringing phone in time.
and when would i see her? Crazy were the words that scribbled out you mouth...
e|--------------------------------------------------------------------------|
B|--------------------------------------------------------------------------|
G|--------------------------------------------------------------------------|
D|-55-5--66-6---88-8---99-99---55-5--66-6---55-5---88-8---55-5--66-6---88-8-|
A|-33-3--55-5---66-6---88-88---33-3--55-5---66-6---55-5---33-3--55-5---66-6-|
E|--------------------------------------------------------------------------|

...I stuttered replacing your face to those words. Where and when would I kill her? I'll
to this. I'll wish to this. I'll, I'll wish. To the bitter end of my day.

e|-------------------|
B|-------------------|
G|-------------------|
D|-99-9---55-5--66-6-|
A|-88-8---33-3--55-5-|
E|-------------------|

Well, where were you?"

Memorizing the order of the chords is the toughest part of playing this, but it takes no
than 15 minutes to memorize. Have fun!    

Added On December 16th, 2013

SHARE

Comments

blog comments powered by Disqus

VERSIONS

ADVERTISEMENT