Crosby Stills Nash And Young Tabs

Almost Cut My Hair

2 versions

TAB

            Almost Cut My Hair Tab by Crosby Stills Nash And Young


-----------------------------------------------------------------------------
			     Almost Cut My Hair - David Crosby
-----------------------------------------------------------------------------
Tabbed by: Nate Cat
Email: Nateg1489@aol.com

Tuning:EADGBe

Intro:
e|--------8-----------------8----10----8-----------------------8--|
B|10-8-10-----------------8---------10---10--8-5-------------8---8|
G|----------9-7-----5-7-9------------------------5-----5-7-9------|
D|--------------5-7--------------------------------5-7------------|
A|----------------------------------------------------------------|
E|----------------------------------------------------------------|

Verse:
e|---------------------------|
B|---10----8----7--5h7p5h7p5-|
G|----9----9----7------------|
D|---10----9----7------------|
A|-0-------------------------|
E|-------3----2--------------|

Chorus:
  C Em Am  F Em D7sus D   
e|0--0--0--1--0--3----2-------------|
B|1--0--1--1--0--1----3-------------|
G|0--0--2--2--0--2----2-------------|
D|2--2--2--3--2--0----0-------------|
A|3--2--0--0--2---------------------|
E|---0--------0---------------------|

Solo 1: Just mess around with the scale from the intro (same with solos 2 and 3)

Song Structure:
Intro
Verse x4
Chorus
Solo 1
Verse x4
Chorus
Solo 2
Verse x2
Chorus
Solo 3

I'm sure a couple notes in the intro are a little off, but it sounds good anyway.  If 
really that worried about it listen to the recording and figure out which ones are wrong, 
tell me if you feel it's necessary, and I might fix it.  This is a great song, so have fun playing it.    

Added On December 4th, 2013

SHARE

Comments

blog comments powered by Disqus

VERSIONS

ADVERTISEMENT