Crowbar Tabs

Lasting Dose

2 versions

TAB

            Lasting Dose Tab by Crowbar


Crowbar - Lasting Dose

Intro ( Dropped D tuning ) D A D G B E

-----------------------------------------------------------
-----------------------------------------------------------
-----------------------------------------------------------
------5------3---------------------5-----------------------
--------------------5--------8---------5----6--------------
-----------------------------------------------------------



Main riff...(  " Sometimes I need the fuel......... )

-----------------------------------------------------------
-----------------------------------------------------------
-----------------------------------------------------------
-----------------------------------------------------------
------5-------3--5--------8--7--8--7-----0----0-1-----0--1--3-
------5-------3--5--------8--7--8--7-----0----0-1-----0--1--3-


Bridge  (  " I've felt the pain of a brutal war......." )
----------------------------------------------------------------------
----------------------------------------------------------------------
----------------------------------------------------------------------
----------------------------------------------------------------------
----------3------1-----3-----1---------------------5----1--3--1-------
--5-0--5------------------------0---3-----5-0--5------------------0--3    

Added On December 4th, 2013

SHARE

Comments

blog comments powered by Disqus

VERSIONS

ADVERTISEMENT