Cry Of Love Tabs

Hand Me Down

1 versions

TAB

            Cry of Love - Hand Me Down

----------------------------------------|
-------------------------------------3--|
------------------------2-----0------2--|
--2-2-2---2--------------2---0-------0--|
--0-0-3---0---0-3-5-3-0-----3----3bend--|
----------------------------------------|

-----------------------------------------|
-------------------------------------3---|
----------2-------------2-----0------2---|
--2-2-2------------------2---0-------0---|
--0-0-3------0-3-5-3-0------3----3bend---|
-----------------------------------------|

Brother, can you call me by my name?
Sister, can you look at me the same?
Mama, I’ll never be that strong.
You’ve always had the answers. Tell me where did I go wrong.

 A                       C
Ain’t no preacher gonna move my head.
 D                                A
Ain’t no talkin’ gonna raise the dead.
 C                  D
Take your words to town,
 G                 A
But don’t hand me down.

Tell me people, is there somethin’ wrong with change?
Can you tell me, baby, that you love me just the same?
Wake up. ‘Cause there’s more to life than sin.
Go ahead and try to fool me. There’s a fool behind your grin.

 G             A
Don’t hand me down.
 C                    D
No, I might not be a saint.
Don’t drag me ‘round.
‘Cause pitiful I ain’t.
Don’t hand me down.
Oh, oh, oh.

Ain’t no talkin’ gonna move my head.
Got two hands to make my bed.

Take your words to town,
But don’t hand me down.

Don’t hand me down.
No, I might not be a saint.
Don’t drag me ‘round.
‘Cause pitiful I ain’t.
Don’t hand me down.
Oh, oh, oh.

Ain’t no talkin’ gonna move my head.
Got two hands to make my bed.

Take your words to town,
But don’t hand me down.    

Added On December 16th, 2013

SHARE

Comments

blog comments powered by Disqus

ADVERTISEMENT