TAB

            Risque Tab by Cute Is What We Aim For


-----------------------------------------------------------------------
		     RISQUE – Cute Is What We Aim For
-----------------------------------------------------------------------

Tabbed by: Stephen Adams
Email: bigsteve0788@aol.com

Tuning: Standard
* = palm mute
/ = slide
\ = slide


Intro: “I’ve got birds…”
e|--0-------0-------0-------0-----------------|
B|--0-------0-------0-------0-----------------|
G|--9-------9-------9-------9-----------------|
D|--9-------9-------7-------9-----------------|
A|--7-------7-------7-------9-----------------|
E|--0-------9-------5-------7-----------------|


Verse 1 Guitar 1: “Medically speaking…”
e|-------------------------------------------|
B|-----0-------0-------0---------------------|
G|-------------------------------------------|
D|---9---9---9---9---9---9---9---9-----------|x7
A|-------------------------------------------|
E|-5-------7-------0-------9---7-------------|


Verse 1 Guitar 2:
e|-------------------------------------------|
B|-------------------------------------------|
G|---9-8-9-----------8-9-13-11-9/11\9--------|
D|-------------------------------------------|
A|-------------------------------------------|
E|-------------------------------------------|


Verse 1 Guitar 1 Continued: “Pretty please”
e|-------------------------------------------|
B|-----0-------0-----------------------------|
G|-------------------99999-------------------|
D|---9---9---9---9---99999-------------------|
A|-------------------77777-------------------|
E|-5-------7---------00000-------------------|
                     *****

Chorus:
e|-------------------------------------------|
B|-------------------------------------------|
G|-9----9----9----9--------------------------|
D|-9----9—---7----9--------------------------|
A|-7----7----7----9--------------------------|
E|------9----5----7--------------------------|


Verse 2 Guitar 1: 
e|-------------------------------------------|
B|-----0-------0-------0---------------------|
G|-------------------------------------------|
D|---9---9---9---9---9---9---9---9-----------|x10
A|-------------------------------------------|
E|-5-------7-------0-------9---7-------------|


Verse 1 Guitar 2:
e|-------------------------------------------|
B|-------------------------------------------|
G|---9-8-9-----------8-9-13-11--9/11\9-------|
D|-------------------------------------------|
A|-------------------------------------------|
E|-------------------------------------------|


Verse 2 Guitar 1 Continued: “…My mouth is”
e|-------------------------------------------|
B|-----0-------0-----------------------------|
G|-------------------99999-------------------|
D|---9---9---9---9---99999-------------------|
A|-------------------77777-------------------|
E|-5-------7---------00000-------------------|
                     *****

Chorus:
e|-------------------------------------------|
B|-------------------------------------------|
G|-9----9----9----9--------------------------|
D|-9----9—---7----9--------------------------|x2
A|-7----7----7----9--------------------------|
E|------9----5----7--------------------------|


Bridge: “Ahh…”
e|-------------------------------------------|
B|-------------------------------------------|
G|-9----9----9----9--------------------------|
D|-9----7—---9----9--------------------------|x2
A|-7----7----7----9--------------------------|
E|-9----5---------7--------------------------|


3rd Chorus:
e|-0-----0----------------------------------------|
B|-0-----0----------------------------------------|
G|-9-----9-----9999999999999999-9999999999999999--|
D|-9-----9—----7777777777777777-9999999999999999--|
A|-7-----7-----7777777777777777-9999999999999999--|
E|-------9-----5555555555555555-7777777777777777--|
	       **************** ****************


3rd Chorus Continued:
e|-------------------------------------------|
B|-------------------------------------------|
G|-9----9----9----9--------------------------|
D|-9----9—---7----9--------------------------|x2
A|-7----7----7----9--------------------------|
E|------9----5----7--------------------------|


End On:
e|---------|
B|---------|
G|-9-------|
D|-9-------|
A|-7-------|
E|---------|

should be all right.    

Added On December 4th, 2013

SHARE

Comments

blog comments powered by Disqus

VERSIONS

ADVERTISEMENT