Cute Is What We Aim For Tabs

Sweet Talk 101

2 versions

TAB

            Sweet Talk 101 Tab by Cute Is What We Aim For


This is a pretty good song. i just got the CD like a week ago so it might not be
and also this is my first tab so dont be to harsh. anywho hope you like it. oh i couldn't
out the second guitar part to the bridge thing so ill try and get on that and see if i 
figure it out. peace.


{Intro} 0:00-0:16

Guitar 1 ( light distortion)
e|----------22-222-----------------------------------------------|
B|-22-23p2-0xx-xxx-0--------00-000-------------------------------|
G|-22-22---222-222-211-111-122-222-------------------------------|
D|-22-20---222-222-022-222-200-000-------------------------------|
A|----------00-000--22-222-2-------------------------------------|
E|---------------------------------------------------------------|

Guitar 2
e|---------------------------------------------------------------|
B|---------------------------------------------------------------|
G|---------------------------------------------------------------|
D|---------------------------------------------------------------|
A|---------------------------------------------------------------|
E|---------------------------------------------------------------|

Guitar 1
e|-5-0-5-044-0-4-055-0-5-077-0-7-055-0-5-044-0-4-055-0-5-077-0-7-0-7-|
B|-------------------------------------------------------------------|
G|-------------------------------------------------------------------|
D|-------------------------------------------------------------------|
A|-------------------------------------------------------------------|
E|-------------------------------------------------------------------|

Guitar 2
e|---------------------------------------------------------------|
B|---------------------------------------------------------------|
G|-------------------66-666-6-77-777-----------------------------|
D|-77-777-7-66-666-6-77-777-7-77-777-----x2----------------------|
A|-77-777-7-77-777-7-77-777-7-55-555-----------------------------|
E|-55-555-5-44-444-4-55-555-5------------------------------------|

{Verse} 0:17-0:34

Guitar 1
e|---------------------------------------------------------------|
B|-2--2--2--2--2--2--2--2--2--2--2--2h3/5~-----------------------|
G|-2--2--2--2--2--2--2--2--2--2--2--2----------------------------|
D|-2--2--2--2--2--2--2--2--2--2--2--2----------------------------|
A|---------------------------------------------------------------|
E|---------------------------------------------------------------|

Guitar 2
e|---------------------------------------------------------------|
B|---------------------------------------------------------------|
G|---------------------------------------------------------------|
D|---------------------------------------------------------------|
A|---------------------------------------------------------------|
E|---------------------------------------------------------------|

Guitar 1
e|---------------------------------------------------------------|
B|-2--2--2--2--2--2--2--2--2--2--2--2h3/55--5--5--5--------------|
G|-2--2--2--2--2--2--2--2--2--2--2--2----4--4--4--4------x2------|
D|-2--2--2--2--2--2--2--2--2--2--2--2----------------------------|
A|---------------------------------------------------------------|
E|---------------------------------------------------------------|

Guitar 2
e|----------------------------------------------------------------|
B|----------------------------------------------------------------| Play the very last
only
G|-------------------------77-777-7-------------------------------| the first time.
D|-77-777-766-666-677-777-777-777-7------x2-----------------------|
A|-77-777-777-777-777-999-955-555-5-------------------------------|
E|-55-555-544-444-499-999-9---------------------------------------|

{Pre-Chorus} 0:35-0:46

Guitar 1
e|-4-0-4-0-4-0-40-5-0-50-7-0-70-4-0-4-0-4-0-40-5-0-50-7-0-7-0-7~-|
B|---------------------------------------------------------------|
G|---------------------------------------------------------------|
D|---------------------------------------------------------------|
A|---------------------------------------------------------------|
E|---------------------------------------------------------------|

Guitar 2
e|---------------------------------------------------------------|
B|---------------------------------------------------------------|
G|---------------------------------------------------------------|
D|---------------------------------------------------------------|
A|---------------------------------------------------------------|
E|---------------------------------------------------------------|

{Chorus} 0:46-0:58

Guitar 1&2
e|---------------------------------------------------------------|
B|---------------------------------------------------------------|
G|-----------------77777777777777779999999999999999-------77~----|
D|-777777777777777777777777777777779999999999999999-77-99-77~----|
A|-777777777777777755555555555555557777777777777777-77-99-55~----|
E|-5555555555555555---------------------------------55-77--------|

{Pre-Verse} 0:59-1:03

Guitar 1
e|---------------------------------------------------------------|
B|-2--2--2--2--2--2--2--2--2--2--2--2h3/5~-----------------------|
G|-2--2--2--2--2--2--2--2--2--2--2--2----------------------------|
D|-2--2--2--2--2--2--2--2--2--2--2--2----------------------------|
A|---------------------------------------------------------------|
E|---------------------------------------------------------------|

{Verse 2} 1:04-1:26

Guitar 1
e|---------------------------------------------------------------|
B|-5-5-5-5-5-5-5-5-5-5-5-5-7-7-7-7-5-5-5-5-5-5-5-5-55------------|
G|-4-4-4-4-4-4-4-4-4-4-4-4-4-4-4-4-4-4-4-4-4-4-4-4-44------------|
D|---------------------------------------------------------------|
A|---------------------------------------------------------------|
E|---------------------------------------------------------------|

Guitar 2
e|---------------------------------------------------------------|
B|---------------------------------------------------------------|
G|-----------77--799---------------------------------------------|
D|-77--766--677--799--77--766---77-------------------------------|
A|-77--766--655--577--77--766---77-------------------------------|
E|-55--544--4---------55--544---55-------------------------------|

Guitar 1
e|---------------------------------------------------------------|
B|-2--2--2--2--2--2--2--2--2--2--2--2h3/55--5--5--5--------------|
G|-2--2--2--2--2--2--2--2--2--2--2--2----4--4--4--4------x2------|
D|-2--2--2--2--2--2--2--2--2--2--2--2----------------------------|
A|---------------------------------------------------------------|
E|---------------------------------------------------------------|

Guitar 2
e|----------------------------------------------------------------|
B|----------------------------------------------------------------| Play the very last
only
G|-------------------------77-777-7-------------------------------| the first time.
D|-77-777-766-666-677-777-777-777-7------x2-----------------------|
A|-77-777-777-777-777-999-955-555-5-------------------------------|
E|-55-555-544-444-499-999-9---------------------------------------|

{Pre-Chorus} 1:28-1:38

Guitar 1
e|-4-0-4-0-4-0-40-5-0-50-7-0-70-4-0-4-0-4-0-40-5-0-50-7-0-7-0-7~-|
B|---------------------------------------------------------------|
G|---------------------------------------------------------------|
D|---------------------------------------------------------------|
A|---------------------------------------------------------------|
E|---------------------------------------------------------------|

{Chorus} 1:39-2:05

Guitar 1&2
e|---------------------------------------------------------------|
B|---------------------------------------------------------------|
G|-----------------77777777777777779999999999999999-------77~----|
D|-777777777777777777777777777777779999999999999999-77-99-77~----|
A|-777777777777777755555555555555557777777777777777-77-99-55~----|
E|-5555555555555555---------------------------------55-77--------|

Guitar 1&2
e|--------------------------------------------------------------------|
B|--------------------------------------------------------------------|
G|-----------------77777777777777779999999999999999-------77-------77-|
D|-777777777777777777777777777777779999999999999999-77-99-77-77-99-77-|
A|-777777777777777755555555555555557777777777777777-77-99-55-77-99-55-|
E|-5555555555555555---------------------------------55-77----55-77----|

{Bridge} 2:06-2:40

Guitar 1 (Clean)
e|-000-0000-0-----------------------------------------------------|
B|-222-2222-2333-3333-3000-0000-0---------------------------------|
G|-222-2222-2222-2222-2111-1111-1222-2222-------------------------| Third time strum a little
D|-222-2222-2000-0000-0222-2222-2000-0000------x3-----------------|on the last chord
you
A|---------------------222-2222-2000-0000-------------------------|hold it out on the
chorus.
E|----------------------------------------------------------------|

Guitar 2
e|-------|--------------------------------------------------------|
B|-------|--------------------------------------------------------|
G|-------|--------------------------------------------------------|
D|-7~----|-----the part i dont know yet---------------------------|
A|-7~----|--------------------------------------------------------|
E|-5~----|--------------------------------------------------------|

{Pre-Chorus} 2:41-2:53

Guitar 1 (clean)
e|---------------------------------------------------------------|
B|--------2~---3~--------2~--------------------------------------|
G|-2~-----2~---2~---2~---2~----2~--------------------------------|
D|-0~-----2~---0~---2~---2~----0~--------------------------------|
A|-0~---------------0~--------(0)~-------------------------------|
E|---------------------------------------------------------------|

Guitar 2
e|---------------------------------------------------------------|
B|---------------------------------------------------------------|
G|-13~-----------------------------------------------------------|
D|---------------------------------------------------------------|
A|---------------------------------------------------------------|
E|---------------------------------------------------------------|

{Chorus} 2:54-3:16

Guitar 1&2 (distortion)
e|---------------------------------------------------------------|
B|---------------------------------------------------------------|
G|-----------------77777777777777779999999999999999-------77~----|
D|-777777777777777777777777777777779999999999999999-77-99-77~----|
A|-777777777777777755555555555555557777777777777777-77-99-55~----|
E|-5555555555555555---------------------------------55-77--------|

Guitar 1&2
e|--------------------------------------------------------------------|
B|--------------------------------------------------------------------|
G|-----------------77777777777777779999999999999999-------77----------|
D|-777777777777777777777777777777779999999999999999-77-99-77----------|
A|-777777777777777755555555555555557777777777777777-77-99-55----------|
E|-5555555555555555---------------------------------55-77-------------|

{Outro}

Guitar 1
e|-5-0-5-044-0-4-055-0-5-077-0-7-055-0-5-044-0-4-055-0-5-07----------|
B|-------------------------------------------------------------------|
G|-------------------------------------------------------------------|
D|-------------------------------------------------------------------|
A|-------------------------------------------------------------------|
E|-------------------------------------------------------------------|

Guitar 2
e|------------------------------------------------------------------|
B|------------------------------------------------------------------|
G|-------------------66-666-6-77-777-7-------------------66-666-6-7-|
D|-77-777-7-66-666-6-77-777-7-77-777-7-77-777-7-66-666-6-77-777-7-7-|
A|-77-777-7-77-777-7-77-777-7-55-555-5-77-777-7-77-777-7-77-777-7-5-|
E|-55-555-5-44-444-4-55-555-5----------55-555-5-44-444-4-55-555-5---|

-----------------------------------------------------------------------------------------------    

Added On December 4th, 2013

SHARE

Comments

blog comments powered by Disqus

VERSIONS

ADVERTISEMENT