Cute Is What We Aim For Tabs

Teasing To Please

5 versions

TAB

            Teasing To Please Tab by Cute Is What We Aim For


Artist: Cute Is What We Aim For
Song: Teasing To Please (Left Side, Strong Side)
Album: The Same Old Blood Rush With A New Touch
Tabbed By: Darian_ks

Standard Tuning: EADGBe

this is a fucking great song.


Intro/Verse:
e|----------------------------------------------------|
B|-10-10-10-10--10-10-10-10--12-12-12-12--10-10-10-10-|
G|--x--x--x--x---x--x--x--x---x--x--x--x---x--x--x--x-|
D|--x--x--x--x---x--x--x--x---x--x--x--x---x--x--x--x-|
A|-10-10-10-10--10-10-10-10--10-10-10-10--10-10-10-10-|
E|----------------------------------------------------|

e|-----------------------------------------------------|
B|--10-10-10-10--10-10-10-10--12-12-12-12--10-10-10-10-|
G|---x--x--x--x---x--x--x--x---x--x--x--x---x--x--x--x-|
D|---x--x--x--x---x--x--x--x---x--x--x--x---x--x--x--x-|
A|---9--9--9--9---9--9--9--9---9--9--9--9---9--9--9--9-|
E|-----------------------------------------------------|

e|-----------------------------------------------------|
B|--8-8-8-8--8-8-8-8--10-10-10-10---8-8-8-8------------|
G|--x-x-x-x--x-x-x-x---x--x--x--x---x-x-x-x------------|
D|--x-x-x-x--x-x-x-x---x--x--x--x---x-x-x-x------------|
A|--7-7-7-7--7-7-7-7---7--7--7--7---7-7-7-7------------|
E|-----------------------------------------------------|

e|-----------------------------------------------------|
B|--8-8-8-8--8-8-8-8--8-8-8-8--8-8-8-8-----------------|
G|--x-x-x-x--x-x-x-x--x-x-x-x--x-x-x-x-----------------|
D|--x-x-x-x--x-x-x-x--x-x-x-x--x-x-x-x-----------------|
A|--x-x-x-x--x-x-x-x--x-x-x-x--x-x-x-x-----------------|
E|--8-8-8-8--8-8-8-8--7-7-7-7--7-7-7-7-----------------|

Prechorus:

For this part you only pluck the two strings inducated with your thumb
(or pick) and middle finger. you dont strum.
e|-------------------------------------------|
B|-10---10-12-10---10-12-8---8-10-8---8-8-10-|
G|-------------------------------------------|
D|-------------------------------------------| Repeat x2
A|-10---10-10--9----9--9-7---7--7-------7-10-|
E|--------------------------------8---8------|

Chorus:
e|-------------|
B|-------------|
G|-----7-----5-|
D|--5--7--2--5-|Repeat x2
A|--5--5--2--3-|
E|--3-----0----|

A bit of a pause after Chorus.

2nd Verse:
e|-------------------------------------------------------------------------|
B|-------------------------------------------------------------------------|
G|-12121212-12-12-12-12121212-12121212-12121212-12-12-12-12121212-12121212-|
D|-12121212-12-12-12-12121212-12121212-12121212-12-12-12-12121212-12121212-|
A|-10101010-10-10-10-10101010-10101010--9-9-9-9--9--9--9--9-9-9-9--9-9-9-9-|
E|-------------------------------------------------------------------------|
PM: * * * *  *  *  *  * * * *  * * * *  * * * *  *  *  *  * * * *  * * * *

e|----------------------------------------|
B|----------------------------------------|
G|-9999-9999-7777-7777--------------------|
D|-9999-9999-7777-7777-9999-9-9-9-5555-5~-|
A|-7777-7777-5555-5555-9999-9-9-9-5555-5~-|
E|---------------------7777-7-7-7-3333-3~-|
PM:**** **** **** **** **** * * * ****

e|----------------------------------------------------|
B|-10-10-10-10--10-10-10-10--12-12-12-12--10-10-10-10-|
G|--x--x--x--x---x--x--x--x---x--x--x--x---x--x--x--x-|
D|--x--x--x--x---x--x--x--x---x--x--x--x---x--x--x--x-|
A|-10-10-10-10--10-10-10-10--10-10-10-10--10-10-10-10-|
E|----------------------------------------------------|

e|-----------------------------------------------------|
B|--10-10-10-10--10-10-10-10--12-12-12-12--10-10-10-10-|
G|---x--x--x--x---x--x--x--x---x--x--x--x---x--x--x--x-|
D|---x--x--x--x---x--x--x--x---x--x--x--x---x--x--x--x-|
A|---9--9--9--9---9--9--9--9---9--9--9--9---9--9--9--9-|
E|-----------------------------------------------------|

e|-----------------------------------------------------|
B|--8-8-8-8--8-8-8-8--10-10-10-10---8-8-8-8------------|
G|--x-x-x-x--x-x-x-x---x--x--x--x---x-x-x-x------------|
D|--x-x-x-x--x-x-x-x---x--x--x--x---x-x-x-x------------|
A|--7-7-7-7--7-7-7-7---7--7--7--7---7-7-7-7------------|
E|-----------------------------------------------------|

e|-----------------------------------------------------|
B|--8-8-8-8--8-8-8-8--8-8-8-8--8-----------------------|
G|--x-x-x-x--x-x-x-x--x-x-x-x--x-----------------------|
D|--x-x-x-x--x-x-x-x--x-x-x-x--x-----------------------|
A|--x-x-x-x--x-x-x-x--x-x-x-x--x-----------------------|
E|--8-8-8-8--8-8-8-8--7-7-7-7--7-----------------------|

Chorus:
e|-------------|
B|-------------|
G|-----7-----5-|
D|--5--7--2--5-|Repeat x2
A|--5--5--2--3-|
E|--3-----0----|

Bridge:
e|-----------------------------------------------------------|
B|-----------------------------------------------------------|
G|-12~~-14-16-12~~-14-16-12~~-14-16-12~~-14-16-55555555-5555-|
D|---------------------------------------------55555555-5555-|
A|---------------------------------------------33333333-3333-|
E|-----------------------------------------------------------|

Prechorus:
e|-------------------------------------------|
B|-10---10-12-10---10-12-8---8-10-8---8-8-10-|
G|-------------------------------------------|
D|-------------------------------------------| Repeat x2
A|-10---10-10--9----9--9-7---7--7-------7-10-|
E|--------------------------------8---8------|

Chorus:
e|-------------|
B|-------------|
G|-----7-----5-|
D|--5--7--2--5-|Repeat x4
A|--5--5--2--3-|
E|--3-----0----|

Outro:

just All Time Low group singing the chorus. no instruments.    

Added On December 4th, 2013

SHARE

Comments

blog comments powered by Disqus