Danko Jones Tabs

Cadillac

1 versions

TAB

            Cadillac Tab by Danko Jones


Danko Jones – Cadillac
Tabbed by – Michiel Peeters
Contact – michielos_@hotmail.com
Tab Nr. – 3.

Verse and rest of the song but chorus.

E||------------------------------------------------------|
B||------------------------------------------------------|
G||-9--6-6---9--5-5---9--6-------------------------------|
D||-9--6-6---9--5-5---9--6-------------------------------|
A||-7--4-4---7--3-3---7--4-------------------------------|
E||------------------------------------------------------|

Chorus

E||------------------------------------------------------|
B||------------------------------------------------------|
G||-9--6-6---9--5-5---9--6----X-X-X-X-X------------------|
D||-9--6-6---9--5-5---9--6----X-X-X-X-X------------------|
A||-7--4-4---7--3-3---7--4----X-X-X-X-X------------------|
E||------------------------------------------------------|    

Added On December 4th, 2013

SHARE

Comments

blog comments powered by Disqus

ADVERTISEMENT