Danko Jones Tabs

Sleep Is The Enemy

1 versions

TAB

            Band: Danko Jones

title: "Sleep is the enemy"

album: "Sleep is the enemy"

tabbed by Damiano Fassari.


riff 1:

e|--------------------------------------------------------------------|
B|--------------------------------------------------------------------|
G|--------------------------------------------------------------------|
D|-5-4-4-4-4-4-4-4--5-4-4-4-4-4-4-4--5-4-4-4-4-4-4-4--5-4-4-4-4-4-4-4-|
A|-5-4-4-4-4-4-4-4--5-4-4-4-4-4-4-4--5-4-4-4-4-4-4-4--5-4-4-4-4-4-4-4-|
E|-3-2-2-2-2-2-2-2--3-2-2-2-2-2-2-2--3-2-2-2-2-2-2-2--3-2-2-2-2-2-2-2-|

 |--------------------------------------------------------------------|
 |--------------------------------------------------------------------|
 |--------------------------------------------------------------------|
 |-5-4-4-4-4-4-4-4--5-4-4-4-4-4-4-4--5-4-4-4-4-4-4-4--5-4-4-4-4-4-4-4-|
 |-5-4-4-4-4-4-4-4--5-4-4-4-4-4-4-4--5-4-4-4-4-4-4-4--5-4-4-4-4-4-4-4-|
 |-3-2-2-2-2-2-2-2--3-2-2-2-2-2-2-2--3-2-2-2-2-2-2-2--3-2-2-2-2-2-2-2-|

 |---------------------------------|
 |---------------------------------|
 |-5-5-5-5-5-5-5-5-5-5-5-5-5-5-5-5-|
 |-5-5-5-5-5-5-5-5-5-5-5-5-5-5-5-5-|
 |-3-3-3-3-3-3-3-3-3-3-3-3-3-3-3-3-|
 |-3-3-3-3-3-3-3-3-3-3-3-3-3-3-3-3-|

riff 2:                           "Sleeeeeep" / "Is the enemy!"

|-----------------------------|
|-----------------------------|
|-----------------------------|
|-5-5-x-4-x-5-5-x-4-2-5-5-x-4-|
|-5-5-x-4-x-5-5-x-4-2-5-5-x-4-|
|-3-3-x-2-x-3-3-x-2-0-3-3-x-2-|

riff 3:

|------------------------------------------|
|------------------------------------------|
|------------------------------------------|
|-5-5-5-5--4-4-4-4-4-4-4-4-4-4-4-4-4-4-4-4-|
|-5-5-5-5--4-4-4-4-4-4-4-4-4-4-4-4-4-4-4-4-|
|-3-3-3-3--2-2-2-2-2-2-2-2-2-2-2-2-2-2-2-2-|


order:

-riff 1 x2
-riff 2 x4
-riff 1 x2
-riff 2 x4
-riff 3 x3
-riff 4 x4
-riff 1 until the end    

Added On December 16th, 2013

SHARE

Comments

blog comments powered by Disqus

ADVERTISEMENT