Danzig Tabs

God Of Light

1 versions

TAB

            God Of Light Tab by Danzig


-----------------------------------------------------------------------------
                           god of light by Danzig
-----------------------------------------------------------------------------
tabbed by:c.o.c.-yeah

tuning:whole step down

I have everything but solo 

pm=palm mute        hb=half bend  ~=let ring
=pinch harmonic  fb=full bend

  Riff #1
D|-------------------------------------|
A|-------------------------------------|
F|------hb-----fb---hb--------|
C|-------------------------------------|
G|-2-2-2---2-2-2-2---2-2-2---2-2-2--3~-|
D|-0-0-0---0-0-0-0---0-0-0---0-0-0--1~-|
  |-pm--| |--pm---| |-pm--| |-pm--|
 
  Riff #2
D|------------------|----------------|------------------|----------|
A|------------------|----------------|------------------|----------|
F|------------------|----------------|------------------|----------|
C|------------------|----------------|------------------|----------|
G|-7--5-------------|-7--5-----------|-7--5-------------|-7--5-----|
D|-------7--5--3--0-|-------7--5--3~-|-------7--5--3--0-|-------1~-|

This is my first tab, I hope you like it, please rate it.    

Added On December 4th, 2013

SHARE

Comments

blog comments powered by Disqus

ADVERTISEMENT