Daughtry Tabs

There And Back Again

2 versions

TAB

            =====================================================================================
Title: *There And Back Again*
Artist: Daughtry
Album: Daughtry
=====================================================================================
Written by Chris Daughtry and Brent Smith (of Shinedown)
Produced by
=====================================================================================
Label: Sony
Year: 2006
=====================================================================================
Track: -10-
=====================================================================================
Transcripted by Asa Gaston
=====================================================================================
Tuning: Drop D (D-A-D-G-B-E)
=====================================================================================

-------------------------------------------------------------------------------------
INTRO
-------------------------------------------------------------------------------------
 
*(Bass)   
E|-------------------------------|\
B|-------------------------------|\\
G|-------------------------------|\\\ Play 
D|-------------------------------|///  3x
A|-------------------------------|//
D|---3-0-0-0-0-0-3-0-0-0-0-0-3---|/

*(Gtr. 1)
E|-------------------|------------------------------|\         ---------------|
B|-------------------|------------------------------|\\        ---------------|
G|-------------------|--------------------------5---|\\\ Play  ---------------|
D|---------6---5---3-|--3-----------3-----------3---|///  3x   ---6---5---3---|
A|---/8\---6---5---3-|--3-0-0-0-0-0-3-0-0-0-0-0-3---|//        ---6---5---3---|
D|---------6---5---3-|--3-0-0-0-0-0-3-0-0-0-0-0-3---|/         ---6---5---3---|

-------------------------------------------------------------------------------------
VERSE
-------------------------------------------------------------------------------------

E|-----------------------------------------------------------------------|
B|-----------------------------------------------------------------------|
G|-----------------------------------------------------------------------|
D|-----------------------------------------------------------------------|
A|---3-0-0-0-0-0-3-0-0-0-0-0-3---3-0-0-0-0-0-3-0-0-0-0-0-3---3/5-5-5-5---|
D|---3-0-0-0-0-0-3-0-0-0-0-0-3---3-0-0-0-0-0-3-0-0-0-0-0-3---------------|
       P.M. - - }  - - - - -}      - - - - -}  - - - - -} 
  1. Take,                       take your  time...

E|-------------------------------------------------------------------|
B|-------------------------------------------------------------------|
G|---------------------------------5-5-5-5-5-5/8-8-8-8-8-8-7-7-7-7---|
D|---------------------------------x-x-x-x-x-x---x-x-x-x-x-x-x-x-x---|
A|---3-0-0-0-0-0-3-0-0-0-0-0-3-----3-3-3-3-3-3/6-6-6-6-6-6-5-5-5-5---|
D|---3-0-0-0-0-0-3-0-0-0-0-0-3---------------------------------------|
       P.M. - - }  - - - - -}

E|------------------------------------------------------------------|
B|------------------------------------------------------------------|
G|------------------------------------------------------------------|
D|------------------------------------------------------------------|
A|---3-0-0-0-0-0-3-0-0-0-0-0-3---3-0-0-0-0-0-3-0-0-0-0-0-3----------|
D|---3-0-0-0-0-0-3-0-0-0-0-0-3---3-0-0-0-0-0-3-0-0-0-0-0-3---4~~~---|
       P.M. - - }  - - - - -}      - - - - -}  - - - - -}    *P.H.

E|-------------------------------------------------------------------|
B|-------------------------------------------------------------------|
G|---------------------------------5-5-5-5-5-5/8-8-8-8-8-8-7-7-7-7---|
D|---------------------------------x-x-x-x-x-x---x-x-x-x-x-x-x-x-x---|
A|---3-0-0-0-0-0-3-0-0-0-0-0-3-----3-3-3-3-3-3/6-6-6-6-6-6-5-5-5-5---|
D|---3-0-0-0-0-0-3-0-0-0-0-0-3---------------------------------------|
       P.M. - - }  - - - - -}

-------------------------------------------------------------------------------------
PRE-CHORUS
-------------------------------------------------------------------------------------


E|---------------------------------|\         ------------------------|
B|-----------------------6-6-6-6---|\\        ------------------------|
G|-----------------------5-5-5-5---|\\\ Play  ------------------------|
D|-----------------------3-3-3-3---|///  3x   ------------------------|
A|---3-0--0-0--3-0--0-0--3-3-3-3---|//        ---3--3-x---5-5-5-5-5---|
D|---3-0--0-0--3-0--0-0--3-3-3-3---|/         ---3--3-x---5-5-5-5-5---|
 Now shine...

-------------------------------------------------------------------------------------
CHORUS
-------------------------------------------------------------------------------------


E|---------------------------------------------------------------------|\
B|--------------------6--6----6--6-6-6---3-----3-3-3-------------------|\\
G|---7--7-x--7--7-7---5--5----5--5-5-5---4--x--4-4-4---3--3-x--5-5-5---|\\\
D|---7--7-x--7--7-7---3--3-x--3--3-3-3---0--x--0-0-0---3--3-x--5-5-5---|\\\\
A|---5--5-x--5--5-5---3--3-x--3--3-3-3---2--x--2-2-2---1--1-x--3-3-3---|\\\\\
D|--------------------3--3-x--3--3-3-3---------------------------------|\\\\\\
 |   Lay it down...                                                           | Play 2x
E|---------------------------------------------------------------------|//////
B|-----------6----------------6----------------3------10------10-------|/////
G|---7----------------5------------------4----------------7------7-----|////
D|---------------------------------------------------------------------|///
A|---------------------------------------------------------------------|//
D|---------------------------------------------------------------------|/

-------------------------------------------------------------------------------------
INTERLUDE
-------------------------------------------------------------------------------------


E|-------------------------------|\         
B|-------------------------------|\\        
G|---------------------------5---|\\\ Play  
D|---3-----------------------3---|///  3x 
A|---3-0-0-0-0-0-3-0-0-0-0-0-3---|//
D|---3-0-0-0-0-0-3-0-0-0-0-0-3---|/


E|---------------|
B|---------------|
G|---------------|
D|---6---5---3---|
A|---6---5---3---|
D|---6---5---3---|
 |
E|---------------|
B|--/9---8---6---|
G|---x---x---x---|
D|--/6---5---3---|
A|---------------|
D|---------------|

-------------------------------------------------------------------------------------
VERSE 2
-------------------------------------------------------------------------------------


E|----------------------------------------------------------------------|
B|----------------------------------------------------------------------|
G|----------------------------------------------------------------------|
D|----------------------------------------------------------------------|
A|---3-0-0-0-0-0-3-0-0-0-0-0-3---3-0-0-0-0-0-3-0-0-0-0-0-3--------------|
D|---3-0-0-0-0-0-3-0-0-0-0-0-3---3-0-0-0-0-0-3-0-0-0-0-0-3---5h7h10p0---|
       P.M. - - }  - - - - -}      - - - - -}  - - - - -}
  2. place, replace that line... 

E|-------------------------------------------------------------------|
B|-------------------------------------------------------------------|
G|---------------------------------5-5-5-5-5-5/8-8-8-8-8-8-7-7-7-7---|
D|---------------------------------x-x-x-x-x-x---x-x-x-x-x-x-x-x-x---|
A|---3-0-0-0-0-0-3-0-0-0-0-0-3-----3-3-3-3-3-3/6-6-6-6-6-6-5-5-5-5---|
D|---3-0-0-0-0-0-3-0-0-0-0-0-3---------------------------------------|
       P.M. - - }  - - - - -}

E|------------------------------------------------------------------|
B|------------------------------------------------------------------|
G|------------------------------------------------------------------|
D|------------------------------------------------------------------|
A|---3-0-0-0-0-0-3-0-0-0-0-0-3---3-0-0-0-0-0-3-0-0-0-0-0-3----------|
D|---3-0-0-0-0-0-3-0-0-0-0-0-3---3-0-0-0-0-0-3-0-0-0-0-0-3---4~~~---|
       P.M. - - }  - - - - -}      - - - - -}  - - - - -}    *P.H.

E|-------------------------------------------------------------------|
B|-------------------------------------------------------------------|
G|---------------------------------5-5-5-5-5-5/8-8-8-8-8-8-7-7-7-7---|
D|---------------------------------x-x-x-x-x-x---x-x-x-x-x-x-x-x-x---|
A|---3-0-0-0-0-0-3-0-0-0-0-0-3-----3-3-3-3-3-3/6-6-6-6-6-6-5-5-5-5---|
D|---3-0-0-0-0-0-3-0-0-0-0-0-3---------------------------------------|
       P.M. - - }  - - - - -}

-------------------------------------------------------------------------------------
PRE-CHORUS
-------------------------------------------------------------------------------------


E|---------------------------------|\         ------------------------|
B|-----------------------6-6-6-6---|\\        ------------------------|
G|-----------------------5-5-5-5---|\\\ Play  ------------------------|
D|-----------------------3-3-3-3---|///  3x   ------------------------|
A|---3-0--0-0--3-0--0-0--3-3-3-3---|//        ---3--3-x---5-5-5-5-5---|
D|---3-0--0-0--3-0--0-0--3-3-3-3---|/         ---3--3-x---5-5-5-5-5---|
 Now shine...

-------------------------------------------------------------------------------------
CHORUS
-------------------------------------------------------------------------------------


E|---------------------------------------------------------------------|\
B|--------------------6--6----6--6-6-6---3-----3-3-3-------------------|\\
G|---7--7-x--7--7-7---5--5----5--5-5-5---4--x--4-4-4---3--3-x--5-5-5---|\\\
D|---7--7-x--7--7-7---3--3-x--3--3-3-3---0--x--0-0-0---3--3-x--5-5-5---|\\\\
A|---5--5-x--5--5-5---3--3-x--3--3-3-3---2--x--2-2-2---1--1-x--3-3-3---|\\\\\
D|--------------------3--3-x--3--3-3-3---------------------------------|\\\\\\
 |   Lay it down...                                                           | Play 2x
E|---------------------------------------------------------------------|//////
B|-----------6----------------6----------------3------10------10-------|/////
G|---7----------------5------------------4----------------7------7-----|////
D|---------------------------------------------------------------------|///
A|---------------------------------------------------------------------|//
D|---------------------------------------------------------------------|/

-------------------------------------------------------------------------------------
BRIDGE
-------------------------------------------------------------------------------------


E|-----------------------------------------------------------|
B|-----------------------------------------------------------|
G|-----------------------------------------------------------|
D|---6--5--3--0--0--0-0--6--5--3--0-------------6--5--3--0---|
A|---6--5--3--0--0--0-0--6--5--3--0--3b(full)---6--5--3--0---|
D|---6--5--3--0--0--0-0--6--5--3--0-------------6--5--3--0---|

E|---------------------------------------------|
B|---------------------------------------------|
G|-----------8\7-7-7-7-7---------8\7-7-7-7-7---|
D|-----------x---x-x-x-x---------x---x-x-x-x---|
A|---x-x-x-x-6\5-5-5-5-5-x-x-x-x-6\5-5-5-5-5---|
D|---x-x-x-x-------------x-x-x-x---------------|

E|----------------------------------------------------------|
B|----------------------------------------------------------|
G|----------------------------------------------------------|
D|---6--5--3--0--0--0-0--6--5--3--0------------6--5--3--0---|
A|---6--5--3--0--0--0-0--6--5--3--0------------6--5--3--0---|
D|---6--5--3--0--0--0-0--6--5--3--0--4~~~~~~---6--5--3--0---|
                                     *P.H.

E|---------------------------------------------|\
B|---------------------------------------------|\\
G|-----------8\7-7-7-7-7---------8\7-7-7-7-7---|\\\ Play
D|-----------x---x-x-x-x---------x---x-x-x-x---|///  2x
A|---x-x-x-x-6\5-5-5-5-5-x-x-x-x-6\5-5-5-5-5---|//
D|---x-x-x-x-------------x-x-x-x---------------|/

                                             *(going into chorus)
E|---13--------13--------12--------12-------12~~~~~|
B|---16b(full)-16b(full)-15b(full)-15(full)-15~~~~~|
G|-------------------------------------------------|
D|-------------------------------------------------|
A|-------------------------------------------------|
D|-------------------------------------------------|
 |                                          *
E|-------------------------------------------------|
B|-------------------------------------------------|
G|---3----3----3----3----5----5----5--------7------|
D|---3----3----3----3----5----5----5--------7------|
A|---1----1----1----1----3----3----3--------5------|
D|-------------------------------------------------|

-------------------------------------------------------------------------------------
CHORUS
-------------------------------------------------------------------------------------


E|---------------------------------------------------------------------|\
B|--------------------6--6----6--6-6-6---3-----3-3-3-------------------|\\
G|---7--7-x--7--7-7---5--5----5--5-5-5---4--x--4-4-4---3--3-x--5-5-5---|\\\
D|---7--7-x--7--7-7---3--3-x--3--3-3-3---0--x--0-0-0---3--3-x--5-5-5---|\\\\
A|---5--5-x--5--5-5---3--3-x--3--3-3-3---2--x--2-2-2---1--1-x--3-3-3---|\\\\\
D|--------------------3--3-x--3--3-3-3---------------------------------|\\\\\\
 |   Lay it down...                                                           | Play 4x
E|---------------------------------------------------------------------|//////
B|-----------6----------------6----------------3------10------10-------|/////
G|---7----------------5------------------4----------------7------7-----|////
D|---------------------------------------------------------------------|///
A|---------------------------------------------------------------------|//
D|---------------------------------------------------------------------|/

-------------------------------------------------------------------------------------
OUTRO
-------------------------------------------------------------------------------------


E|-----------------------------------------------------------|
B|-----------------------------------------------------------|
G|-----------------------------------------------------------|
D|---6--5--3--0--0--0-0--6--5--3--0-------------6--5--3--0---|
A|---6--5--3--0--0--0-0--6--5--3--0--3b(full)---6--5--3--0---|
D|---6--5--3--0--0--0-0--6--5--3--0-------------6--5--3--0---|

E|---------------------------------------------|\
B|---------------------------------------------|\\
G|-----------8\7-7-7-7-7---------8\7-7-7-7-7---|\\\ Play
D|-----------x---x-x-x-x---------x---x-x-x-x---|///  2x
A|---x-x-x-x-6\5-5-5-5-5-x-x-x-x-6\5-5-5-5-5---|//
D|---x-x-x-x-------------x-x-x-x---------------|/

E|-----------------||
B|-----------------||
G|-----------------||
D|-----------0-----||
A|---x-x-x-x-0-----||
D|---x-x-x-x-0-----||

**************************************************************************************
-Lyrics
**************************************************************************************

Take, take your time.
Smell the roses, but steal the vines.
Don't wait for the hands of time
To second guess and change your mind.
And shine.
Here's your moment to shine.
Shine.

Lay down, my friend.
Close your eyes, breathe in,
And I'll take you there and back again.
No more questions why.
I'm not so surprised
Why you have
Been there and back again.

Replace, replace that line
That spoke to you
And showed no signs to be alive.
So are you livin' or dead?
You have made a choice to hear your voice
Or hold on to what they said.
Now, shine.
Here's your moment to shine.
Shine.

Lay down, my friend.
Close your eyes, breathe in,
And I'll take you there and back again.
No more questions why.
I'm not so surprised
Why you have
Been there and back again.

Back again, back again.
Back again, back again.

Lay down, my friend.
Close your eyes, breathe in,
And I'll take you there and back again.
No more questions why.
I'm not so surprised
Why you have
Been there and back again.

Lay down, my friend.
Close your eyes, breathe in,
And I will take you there and back again.
No more questions why.
I'm not so surprised
Why you have
Been there and back again.


-Guitar Legend


 D*------------Distortion

 C*------------Clean

 h ------------Hammer-On

 p ------------Pull-Off

 b ------------Bend:

               + (1/4)-One-fourth bend + (1/2)-One-half bend + 
               + (1)-Full bend + (2)-Double full bend, etc.  +

 pb -----------Pre-Bend

 r ------------Bend Release ( if there is no number after r,
                                                     release immediately )
 / ------------Slide Into

 \ ------------Slide Out Of

 s ------------Legato Slide

 S ------------Shift Slide

 Harm.---------Natural Harmonic

 A.H.----------Artifitial Harmonic

 T.H. ---------Tapped Harmonic

 ~ ------------Vibrato

 tr -----------Trill

 T ------------Tap

 TR -----------Trem. Picking

 PM -----------Palm Muting

 \n/ ----------Tremolo Bar Dip; n - Amount to Dip

 \n -----------Tremolo Bar Down

 n/ -----------Tremolo Bar Up

 /n\ ----------Tremolo Bar Inverted Dip

 = ------------Hold Bend; Also Acts As Connecting Devise 
                                                For Hammer-Ons/Pull-Offs
 < ------------Volume Swell Louder

 > ------------Volume Swell Softer

 x ------------Muted Slash

 o ------------Single Note Slash

=====================================================================================
NOTE: Very good song by Daughtry and his hommie Brent. I think Brent was most the
      brains behind it. I swear he's a genious, everything he touchs turns to gold.
      But very good song and the chorus was a little tricky, I kept wanting to play
      a C on the third chord, but I'm pretty sure that wouldn't go with the second
      guitar too well. But anyway, look out for a brother and rate and comment
      first chance you get (assuming, of course, you play the tab first)
      Well... ...ENJOY!!!

             -Asa (myspace.com/asagaston)

***PLEASE RATE AND COMMENT    

Added On December 16th, 2013

SHARE

Comments

blog comments powered by Disqus

VERSIONS

ADVERTISEMENT