Dave Matthews Band Tabs

Crazy Easy

1 versions

TAB

            Crazy Easy
Artist: Dave Matthews Band
Album: Live Trax Vol. 8

Contributor: Daniel Schnall

Tuning: Standard


Intro/Bridge/End
e|----------------0-----------0--|
B|--12------------2------(3)--2--|
G|--x---6/8--8----2---4---x---2--|
D|--9---7/9--9----2---x---4---2--|
A|----------------0---2---5---0--|
E|--------------------3----------|

Verse/Jam
e|--4---4---4--(2)--|
B|--4---4---4---4---|
G|--4---4---4---4---|
D|--6---4---2---4---|
A|--------------2---|
E|------------------|

Chorus
e|----------------0--|
B|----------------2--|
G|--4-------------2--|
D|--x---0h4-5-5---2--|
A|--2---5---5-5---0--|
E|--3----------------|    

Added On December 16th, 2013

SHARE

Comments

blog comments powered by Disqus

ADVERTISEMENT