Dave Matthews Band Tabs

Louisiana Bayou

1 versions

TAB

            This song sounds hard, but it's not as hard as it seems
-------------------------------------------------------------------------------
			    Louisiana Bayou- Dave Matthews Band
-------------------------------------------------------------------------------
Tabbed by: Colin McGuire
Email: CZMcGuire@gmail.com

Tuning:Standard
Intro:
e|---12--9-10p9----12--9-10p9-----12--9-10p9----12-9-10p9|
B|10------------10-------------10------------10----------|
G|-------------------------------------------------------|
D|-------------------------------------------------------|
A|-------------------------------------------------------|
E|-------------------------------------------------------|
Verse  and Chorus (follows the bass line) listen to the recording for strumming
e|-------------------------------------------------------|
B|-------------------------------------------------------|
G|-------------------------------------------------------|
D|-------------------------------------------------------|
A|-----7-5-4-4h5p4------7-5-4-4h5p4----------------------|
E|-5-5--------------5-5----------------------------------|
Bridge (walkdown thing)
e|-------------------------------------------------------|
B|-------------------------------------------------------|
G|----------------9--7-6-6-4-2---------------------------|
D|8--6--5--5-3-2--9--7-6-6-4-2---------------------------|
A|8--6--5--5-3-2--7--5-4-4-2-0---------------------------|
E|6--4--3--3-1-0-----------------------------------------|

Jam (or you can play the verse/chorus)
e|X---X--------------------------------------------------------|
B|X---X--------------------------------------------------------|
G|9-/-7--------------------------------------------------------|
D|7-/-5--------------------------------------------------------|
A|X---X--------------------------------------------------------|
E|X---X--------------------------------------------------------|

Notes: When playing this song, you want to try to mute all of the strings you're not 
and strum the whole guitar. This tab was made from meticulously watching the Live at 
Park DVD, and being at the concert. Hope it helps! and HAVE FUN!    

Added On December 16th, 2013

SHARE

Comments

blog comments powered by Disqus

ADVERTISEMENT