Decemberists Tabs

Clementine

3 versions

TAB

            Clementine Tab by Decemberists


song      : clementine
artist    : the decemberists
tabbed by : oneshotnothing


capo on 5th fret
chords relative to capo


this isn't exact, so listen to the song.
you can probably just leave your finger
on the b string for the whole song,
except for the A chord in the chorus.


intro/verse

e--|------0---0-|--0---0---0-|------------|------0---0-|
b--|3-------3---|------------|------------|------3-3-3-|
g--|2-------2---|2---2---2---|0-----0---0-|2-------2---|
d--|0-----------|4---2---0---|0-----0---0-|2-------2---|
a--|0-----------|------------|2-------2---|0-----------|
E--|------------|------------|3-----------|------------|
    ^   ^   ^   |^   ^   ^   |^   ^   ^   |^   ^   ^   |
    1   2   3   |1   2   3   |1   2   3   |1   2   3   |


chorus

e--|0---|0---|0---|0---
b--|3---|3---|3---|2---
g--|4---|0---|0---|2---
d--|4---|0---|2---|2---
a--|2---|2---|2---|0---
E--|----|3---|0---|----
    ^    ^    ^    ^
    Bm   G    Em   A    

Added On December 4th, 2013

SHARE

Comments

blog comments powered by Disqus

VERSIONS

ADVERTISEMENT