Decemberists Tabs

Odalisque

3 versions

TAB

            Odalisque Chords by Decemberists

* denotes power chord
The chord I called BaddF# is a (partially) barred B major played with the F# on the high 
string (9th fret). It looks like this:

E--9-------------|
B--7-------------|
G--8-------------|
D--9-------------|
A----------------|
E----------------|

Strum that chord very slowly, accenting the F#. Watch the timing on some of the 
it can be tricky. Please rate!

"Odalisque"

D#m
D#m
e |---|-x-|---|---|---|
B |---|---|---|-x-|---|
G |---|---|-x-|---|---|
D |---|---|---|-x-|---|
A |---|---|---|---|---|
E |---|---|---|---|---|
G#
G#
e |---|---|---|-x-|---|
B |-x-|---|---|---|---|
G |-x-|---|---|---|---|
D |-x-|---|---|---|---|
A |---|---|---|---|---|
E |---|---|---|---|---|
B
B
e |---|-x-|---|---|---|
B |---|---|---|-x-|---|
G |---|---|---|-x-|---|
D |---|---|---|-x-|---|
A |---|-x-|---|---|---|
E |---|-x-|---|---|---|
BaddF# They've come to find you, Odalisque D#m
D#m
e |---|-x-|---|---|---|
B |---|---|---|-x-|---|
G |---|---|-x-|---|---|
D |---|---|---|-x-|---|
A |---|---|---|---|---|
E |---|---|---|---|---|
G#
G#
e |---|---|---|-x-|---|
B |-x-|---|---|---|---|
G |-x-|---|---|---|---|
D |-x-|---|---|---|---|
A |---|---|---|---|---|
E |---|---|---|---|---|
B
B
e |---|-x-|---|---|---|
B |---|---|---|-x-|---|
G |---|---|---|-x-|---|
D |---|---|---|-x-|---|
A |---|-x-|---|---|---|
E |---|-x-|---|---|---|
BaddF# As the light dies horribly A#m
A#m
e |-x-|---|---|---|---|
B |---|-x-|---|---|---|
G |---|---|-x-|---|---|
D |---|---|-x-|---|---|
A |-x-|---|---|---|---|
E |---|---|---|---|---|
A#m
A#m
e |-x-|---|---|---|---|
B |---|-x-|---|---|---|
G |---|---|-x-|---|---|
D |---|---|-x-|---|---|
A |-x-|---|---|---|---|
E |---|---|---|---|---|
D#m
D#m
e |---|-x-|---|---|---|
B |---|---|---|-x-|---|
G |---|---|-x-|---|---|
D |---|---|---|-x-|---|
A |---|---|---|---|---|
E |---|---|---|---|---|
G#
G#
e |---|---|---|-x-|---|
B |-x-|---|---|---|---|
G |-x-|---|---|---|---|
D |-x-|---|---|---|---|
A |---|---|---|---|---|
E |---|---|---|---|---|
On a fire escape you walk A#m
A#m
e |-x-|---|---|---|---|
B |---|-x-|---|---|---|
G |---|---|-x-|---|---|
D |---|---|-x-|---|---|
A |-x-|---|---|---|---|
E |---|---|---|---|---|
A#m
A#m
e |-x-|---|---|---|---|
B |---|-x-|---|---|---|
G |---|---|-x-|---|---|
D |---|---|-x-|---|---|
A |-x-|---|---|---|---|
E |---|---|---|---|---|
D#m
D#m
e |---|-x-|---|---|---|
B |---|---|---|-x-|---|
G |---|---|-x-|---|---|
D |---|---|---|-x-|---|
A |---|---|---|---|---|
E |---|---|---|---|---|
G#
G#
e |---|---|---|-x-|---|
B |-x-|---|---|---|---|
G |-x-|---|---|---|---|
D |-x-|---|---|---|---|
A |---|---|---|---|---|
E |---|---|---|---|---|
B
B
e |---|-x-|---|---|---|
B |---|---|---|-x-|---|
G |---|---|---|-x-|---|
D |---|---|---|-x-|---|
A |---|-x-|---|---|---|
E |---|-x-|---|---|---|
BaddF# All rare and resolved to drop D#m
D#m
e |---|-x-|---|---|---|
B |---|---|---|-x-|---|
G |---|---|-x-|---|---|
D |---|---|---|-x-|---|
A |---|---|---|---|---|
E |---|---|---|---|---|
G#
G#
e |---|---|---|-x-|---|
B |-x-|---|---|---|---|
G |-x-|---|---|---|---|
D |-x-|---|---|---|---|
A |---|---|---|---|---|
E |---|---|---|---|---|
B
B
e |---|-x-|---|---|---|
B |---|---|---|-x-|---|
G |---|---|---|-x-|---|
D |---|---|---|-x-|---|
A |---|-x-|---|---|---|
E |---|-x-|---|---|---|
BaddF# D#m
D#m
e |---|-x-|---|---|---|
B |---|---|---|-x-|---|
G |---|---|-x-|---|---|
D |---|---|---|-x-|---|
A |---|---|---|---|---|
E |---|---|---|---|---|
G#
G#
e |---|---|---|-x-|---|
B |-x-|---|---|---|---|
G |-x-|---|---|---|---|
D |-x-|---|---|---|---|
A |---|---|---|---|---|
E |---|---|---|---|---|
B
B
e |---|-x-|---|---|---|
B |---|---|---|-x-|---|
G |---|---|---|-x-|---|
D |---|---|---|-x-|---|
A |---|-x-|---|---|---|
E |---|-x-|---|---|---|
BaddF# And when they find you, Odalisque D#m
D#m
e |---|-x-|---|---|---|
B |---|---|---|-x-|---|
G |---|---|-x-|---|---|
D |---|---|---|-x-|---|
A |---|---|---|---|---|
E |---|---|---|---|---|
G#
G#
e |---|---|---|-x-|---|
B |-x-|---|---|---|---|
G |-x-|---|---|---|---|
D |-x-|---|---|---|---|
A |---|---|---|---|---|
E |---|---|---|---|---|
B
B
e |---|-x-|---|---|---|
B |---|---|---|-x-|---|
G |---|---|---|-x-|---|
D |---|---|---|-x-|---|
A |---|-x-|---|---|---|
E |---|-x-|---|---|---|
BaddF# They will rend you, terribly A#m
A#m
e |-x-|---|---|---|---|
B |---|-x-|---|---|---|
G |---|---|-x-|---|---|
D |---|---|-x-|---|---|
A |-x-|---|---|---|---|
E |---|---|---|---|---|
A#m
A#m
e |-x-|---|---|---|---|
B |---|-x-|---|---|---|
G |---|---|-x-|---|---|
D |---|---|-x-|---|---|
A |-x-|---|---|---|---|
E |---|---|---|---|---|
D#m
D#m
e |---|-x-|---|---|---|
B |---|---|---|-x-|---|
G |---|---|-x-|---|---|
D |---|---|---|-x-|---|
A |---|---|---|---|---|
E |---|---|---|---|---|
G#
G#
e |---|---|---|-x-|---|
B |-x-|---|---|---|---|
G |-x-|---|---|---|---|
D |-x-|---|---|---|---|
A |---|---|---|---|---|
E |---|---|---|---|---|
Stitch from stitch 'til all A#m
A#m
e |-x-|---|---|---|---|
B |---|-x-|---|---|---|
G |---|---|-x-|---|---|
D |---|---|-x-|---|---|
A |-x-|---|---|---|---|
E |---|---|---|---|---|
A#m
A#m
e |-x-|---|---|---|---|
B |---|-x-|---|---|---|
G |---|---|-x-|---|---|
D |---|---|-x-|---|---|
A |-x-|---|---|---|---|
E |---|---|---|---|---|
D#m
D#m
e |---|-x-|---|---|---|
B |---|---|---|-x-|---|
G |---|---|-x-|---|---|
D |---|---|---|-x-|---|
A |---|---|---|---|---|
E |---|---|---|---|---|
G#
G#
e |---|---|---|-x-|---|
B |-x-|---|---|---|---|
G |-x-|---|---|---|---|
D |-x-|---|---|---|---|
A |---|---|---|---|---|
E |---|---|---|---|---|
B
B
e |---|-x-|---|---|---|
B |---|---|---|-x-|---|
G |---|---|---|-x-|---|
D |---|---|---|-x-|---|
A |---|-x-|---|---|---|
E |---|-x-|---|---|---|
BaddF# Your linen limbs will fall G#
G#
e |---|---|---|-x-|---|
B |-x-|---|---|---|---|
G |-x-|---|---|---|---|
D |-x-|---|---|---|---|
A |---|---|---|---|---|
E |---|---|---|---|---|
* G#
G#
e |---|---|---|-x-|---|
B |-x-|---|---|---|---|
G |-x-|---|---|---|---|
D |-x-|---|---|---|---|
A |---|---|---|---|---|
E |---|---|---|---|---|
* G#
G#
e |---|---|---|-x-|---|
B |-x-|---|---|---|---|
G |-x-|---|---|---|---|
D |-x-|---|---|---|---|
A |---|---|---|---|---|
E |---|---|---|---|---|
* B
B
e |---|-x-|---|---|---|
B |---|---|---|-x-|---|
G |---|---|---|-x-|---|
D |---|---|---|-x-|---|
A |---|-x-|---|---|---|
E |---|-x-|---|---|---|
* C#
C#
e |-x-|---|---|---|---|
B |---|-x-|---|---|---|
G |-x-|---|---|---|---|
D |---|---|-x-|---|---|
A |---|---|---|-x-|---|
E |---|---|---|---|---|
* x2 G#
G#
e |---|---|---|-x-|---|
B |-x-|---|---|---|---|
G |-x-|---|---|---|---|
D |-x-|---|---|---|---|
A |---|---|---|---|---|
E |---|---|---|---|---|
* G#
G#
e |---|---|---|-x-|---|
B |-x-|---|---|---|---|
G |-x-|---|---|---|---|
D |-x-|---|---|---|---|
A |---|---|---|---|---|
E |---|---|---|---|---|
* G#
G#
e |---|---|---|-x-|---|
B |-x-|---|---|---|---|
G |-x-|---|---|---|---|
D |-x-|---|---|---|---|
A |---|---|---|---|---|
E |---|---|---|---|---|
* B
B
e |---|-x-|---|---|---|
B |---|---|---|-x-|---|
G |---|---|---|-x-|---|
D |---|---|---|-x-|---|
A |---|-x-|---|---|---|
E |---|-x-|---|---|---|
* C#
C#
e |-x-|---|---|---|---|
B |---|-x-|---|---|---|
G |-x-|---|---|---|---|
D |---|---|-x-|---|---|
A |---|---|---|-x-|---|
E |---|---|---|---|---|
* / G#
G#
e |---|---|---|-x-|---|
B |-x-|---|---|---|---|
G |-x-|---|---|---|---|
D |-x-|---|---|---|---|
A |---|---|---|---|---|
E |---|---|---|---|---|
* G#
G#
e |---|---|---|-x-|---|
B |-x-|---|---|---|---|
G |-x-|---|---|---|---|
D |-x-|---|---|---|---|
A |---|---|---|---|---|
E |---|---|---|---|---|
* B
B
e |---|-x-|---|---|---|
B |---|---|---|-x-|---|
G |---|---|---|-x-|---|
D |---|---|---|-x-|---|
A |---|-x-|---|---|---|
E |---|-x-|---|---|---|
B
B
e |---|-x-|---|---|---|
B |---|---|---|-x-|---|
G |---|---|---|-x-|---|
D |---|---|---|-x-|---|
A |---|-x-|---|---|---|
E |---|-x-|---|---|---|
Lazy lady had a baby girl G#
G#
e |---|---|---|-x-|---|
B |-x-|---|---|---|---|
G |-x-|---|---|---|---|
D |-x-|---|---|---|---|
A |---|---|---|---|---|
E |---|---|---|---|---|
* G#
G#
e |---|---|---|-x-|---|
B |-x-|---|---|---|---|
G |-x-|---|---|---|---|
D |-x-|---|---|---|---|
A |---|---|---|---|---|
E |---|---|---|---|---|
* G#
G#
e |---|---|---|-x-|---|
B |-x-|---|---|---|---|
G |-x-|---|---|---|---|
D |-x-|---|---|---|---|
A |---|---|---|---|---|
E |---|---|---|---|---|
* B
B
e |---|-x-|---|---|---|
B |---|---|---|-x-|---|
G |---|---|---|-x-|---|
D |---|---|---|-x-|---|
A |---|-x-|---|---|---|
E |---|-x-|---|---|---|
* C#
C#
e |-x-|---|---|---|---|
B |---|-x-|---|---|---|
G |-x-|---|---|---|---|
D |---|---|-x-|---|---|
A |---|---|---|-x-|---|
E |---|---|---|---|---|
* / G#
G#
e |---|---|---|-x-|---|
B |-x-|---|---|---|---|
G |-x-|---|---|---|---|
D |-x-|---|---|---|---|
A |---|---|---|---|---|
E |---|---|---|---|---|
* G#
G#
e |---|---|---|-x-|---|
B |-x-|---|---|---|---|
G |-x-|---|---|---|---|
D |-x-|---|---|---|---|
A |---|---|---|---|---|
E |---|---|---|---|---|
* G#
G#
e |---|---|---|-x-|---|
B |-x-|---|---|---|---|
G |-x-|---|---|---|---|
D |-x-|---|---|---|---|
A |---|---|---|---|---|
E |---|---|---|---|---|
* B
B
e |---|-x-|---|---|---|
B |---|---|---|-x-|---|
G |---|---|---|-x-|---|
D |---|---|---|-x-|---|
A |---|-x-|---|---|---|
E |---|-x-|---|---|---|
* C#
C#
e |-x-|---|---|---|---|
B |---|-x-|---|---|---|
G |-x-|---|---|---|---|
D |---|---|-x-|---|---|
A |---|---|---|-x-|---|
E |---|---|---|---|---|
* And a sweet it made G#
G#
e |---|---|---|-x-|---|
B |-x-|---|---|---|---|
G |-x-|---|---|---|---|
D |-x-|---|---|---|---|
A |---|---|---|---|---|
E |---|---|---|---|---|
* G#
G#
e |---|---|---|-x-|---|
B |-x-|---|---|---|---|
G |-x-|---|---|---|---|
D |-x-|---|---|---|---|
A |---|---|---|---|---|
E |---|---|---|---|---|
* G#
G#
e |---|---|---|-x-|---|
B |-x-|---|---|---|---|
G |-x-|---|---|---|---|
D |-x-|---|---|---|---|
A |---|---|---|---|---|
E |---|---|---|---|---|
* B
B
e |---|-x-|---|---|---|
B |---|---|---|-x-|---|
G |---|---|---|-x-|---|
D |---|---|---|-x-|---|
A |---|-x-|---|---|---|
E |---|-x-|---|---|---|
* C#
C#
e |-x-|---|---|---|---|
B |---|-x-|---|---|---|
G |-x-|---|---|---|---|
D |---|---|-x-|---|---|
A |---|---|---|-x-|---|
E |---|---|---|---|---|
* / G#
G#
e |---|---|---|-x-|---|
B |-x-|---|---|---|---|
G |-x-|---|---|---|---|
D |-x-|---|---|---|---|
A |---|---|---|---|---|
E |---|---|---|---|---|
* G#
G#
e |---|---|---|-x-|---|
B |-x-|---|---|---|---|
G |-x-|---|---|---|---|
D |-x-|---|---|---|---|
A |---|---|---|---|---|
E |---|---|---|---|---|
* B
B
e |---|-x-|---|---|---|
B |---|---|---|-x-|---|
G |---|---|---|-x-|---|
D |---|---|---|-x-|---|
A |---|-x-|---|---|---|
E |---|-x-|---|---|---|
B
B
e |---|-x-|---|---|---|
B |---|---|---|-x-|---|
G |---|---|---|-x-|---|
D |---|---|---|-x-|---|
A |---|-x-|---|---|---|
E |---|-x-|---|---|---|
Raised on pradies, peanut shells and dirt G#
G#
e |---|---|---|-x-|---|
B |-x-|---|---|---|---|
G |-x-|---|---|---|---|
D |-x-|---|---|---|---|
A |---|---|---|---|---|
E |---|---|---|---|---|
* G#
G#
e |---|---|---|-x-|---|
B |-x-|---|---|---|---|
G |-x-|---|---|---|---|
D |-x-|---|---|---|---|
A |---|---|---|---|---|
E |---|---|---|---|---|
* G#
G#
e |---|---|---|-x-|---|
B |-x-|---|---|---|---|
G |-x-|---|---|---|---|
D |-x-|---|---|---|---|
A |---|---|---|---|---|
E |---|---|---|---|---|
* B
B
e |---|-x-|---|---|---|
B |---|---|---|-x-|---|
G |---|---|---|-x-|---|
D |---|---|---|-x-|---|
A |---|-x-|---|---|---|
E |---|-x-|---|---|---|
* C#
C#
e |-x-|---|---|---|---|
B |---|-x-|---|---|---|
G |-x-|---|---|---|---|
D |---|---|-x-|---|---|
A |---|---|---|-x-|---|
E |---|---|---|---|---|
* / G#
G#
e |---|---|---|-x-|---|
B |-x-|---|---|---|---|
G |-x-|---|---|---|---|
D |-x-|---|---|---|---|
A |---|---|---|---|---|
E |---|---|---|---|---|
* G#
G#
e |---|---|---|-x-|---|
B |-x-|---|---|---|---|
G |-x-|---|---|---|---|
D |-x-|---|---|---|---|
A |---|---|---|---|---|
E |---|---|---|---|---|
* G#
G#
e |---|---|---|-x-|---|
B |-x-|---|---|---|---|
G |-x-|---|---|---|---|
D |-x-|---|---|---|---|
A |---|---|---|---|---|
E |---|---|---|---|---|
* B
B
e |---|-x-|---|---|---|
B |---|---|---|-x-|---|
G |---|---|---|-x-|---|
D |---|---|---|-x-|---|
A |---|-x-|---|---|---|
E |---|-x-|---|---|---|
* C#
C#
e |-x-|---|---|---|---|
B |---|-x-|---|---|---|
G |-x-|---|---|---|---|
D |---|---|-x-|---|---|
A |---|---|---|-x-|---|
E |---|---|---|---|---|
* In a railroad cul-de-sac C#
C#
e |-x-|---|---|---|---|
B |---|-x-|---|---|---|
G |-x-|---|---|---|---|
D |---|---|-x-|---|---|
A |---|---|---|-x-|---|
E |---|---|---|---|---|
D#
D#
e |-x-|---|---|---|---|
B |---|-x-|---|---|---|
G |-x-|---|---|---|---|
D |---|---|-x-|---|---|
A |---|---|---|-x-|---|
E |---|---|---|---|---|
And what do we do with ten baby shoes B
B
e |---|-x-|---|---|---|
B |---|---|---|-x-|---|
G |---|---|---|-x-|---|
D |---|---|---|-x-|---|
A |---|-x-|---|---|---|
E |---|-x-|---|---|---|
C#m
C#m
e |-x-|---|---|---|---|
B |---|-x-|---|---|---|
G |---|---|-x-|---|---|
D |---|---|-x-|---|---|
A |-x-|---|---|---|---|
E |---|---|---|---|---|
A kit bag full of marbles and a broken billiard cue? B
B
e |---|-x-|---|---|---|
B |---|---|---|-x-|---|
G |---|---|---|-x-|---|
D |---|---|---|-x-|---|
A |---|-x-|---|---|---|
E |---|-x-|---|---|---|
What do we do? G#
G#
e |---|---|---|-x-|---|
B |-x-|---|---|---|---|
G |-x-|---|---|---|---|
D |-x-|---|---|---|---|
A |---|---|---|---|---|
E |---|---|---|---|---|
* G#
G#
e |---|---|---|-x-|---|
B |-x-|---|---|---|---|
G |-x-|---|---|---|---|
D |-x-|---|---|---|---|
A |---|---|---|---|---|
E |---|---|---|---|---|
* G#
G#
e |---|---|---|-x-|---|
B |-x-|---|---|---|---|
G |-x-|---|---|---|---|
D |-x-|---|---|---|---|
A |---|---|---|---|---|
E |---|---|---|---|---|
* B
B
e |---|-x-|---|---|---|
B |---|---|---|-x-|---|
G |---|---|---|-x-|---|
D |---|---|---|-x-|---|
A |---|-x-|---|---|---|
E |---|-x-|---|---|---|
* C#
C#
e |-x-|---|---|---|---|
B |---|-x-|---|---|---|
G |-x-|---|---|---|---|
D |---|---|-x-|---|---|
A |---|---|---|-x-|---|
E |---|---|---|---|---|
* x2 What do we do? G#
G#
e |---|---|---|-x-|---|
B |-x-|---|---|---|---|
G |-x-|---|---|---|---|
D |-x-|---|---|---|---|
A |---|---|---|---|---|
E |---|---|---|---|---|
* G#
G#
e |---|---|---|-x-|---|
B |-x-|---|---|---|---|
G |-x-|---|---|---|---|
D |-x-|---|---|---|---|
A |---|---|---|---|---|
E |---|---|---|---|---|
* G#
G#
e |---|---|---|-x-|---|
B |-x-|---|---|---|---|
G |-x-|---|---|---|---|
D |-x-|---|---|---|---|
A |---|---|---|---|---|
E |---|---|---|---|---|
* B
B
e |---|-x-|---|---|---|
B |---|---|---|-x-|---|
G |---|---|---|-x-|---|
D |---|---|---|-x-|---|
A |---|-x-|---|---|---|
E |---|-x-|---|---|---|
* C#
C#
e |-x-|---|---|---|---|
B |---|-x-|---|---|---|
G |-x-|---|---|---|---|
D |---|---|-x-|---|---|
A |---|---|---|-x-|---|
E |---|---|---|---|---|
* / G#
G#
e |---|---|---|-x-|---|
B |-x-|---|---|---|---|
G |-x-|---|---|---|---|
D |-x-|---|---|---|---|
A |---|---|---|---|---|
E |---|---|---|---|---|
* G#
G#
e |---|---|---|-x-|---|
B |-x-|---|---|---|---|
G |-x-|---|---|---|---|
D |-x-|---|---|---|---|
A |---|---|---|---|---|
E |---|---|---|---|---|
* B
B
e |---|-x-|---|---|---|
B |---|---|---|-x-|---|
G |---|---|---|-x-|---|
D |---|---|---|-x-|---|
A |---|-x-|---|---|---|
E |---|-x-|---|---|---|
B
B
e |---|-x-|---|---|---|
B |---|---|---|-x-|---|
G |---|---|---|-x-|---|
D |---|---|---|-x-|---|
A |---|-x-|---|---|---|
E |---|-x-|---|---|---|
Fifteen stitches will mend those britches right G#
G#
e |---|---|---|-x-|---|
B |-x-|---|---|---|---|
G |-x-|---|---|---|---|
D |-x-|---|---|---|---|
A |---|---|---|---|---|
E |---|---|---|---|---|
* G#
G#
e |---|---|---|-x-|---|
B |-x-|---|---|---|---|
G |-x-|---|---|---|---|
D |-x-|---|---|---|---|
A |---|---|---|---|---|
E |---|---|---|---|---|
* G#
G#
e |---|---|---|-x-|---|
B |-x-|---|---|---|---|
G |-x-|---|---|---|---|
D |-x-|---|---|---|---|
A |---|---|---|---|---|
E |---|---|---|---|---|
* B
B
e |---|-x-|---|---|---|
B |---|---|---|-x-|---|
G |---|---|---|-x-|---|
D |---|---|---|-x-|---|
A |---|-x-|---|---|---|
E |---|-x-|---|---|---|
* C#
C#
e |-x-|---|---|---|---|
B |---|-x-|---|---|---|
G |-x-|---|---|---|---|
D |---|---|-x-|---|---|
A |---|---|---|-x-|---|
E |---|---|---|---|---|
* / G#
G#
e |---|---|---|-x-|---|
B |-x-|---|---|---|---|
G |-x-|---|---|---|---|
D |-x-|---|---|---|---|
A |---|---|---|---|---|
E |---|---|---|---|---|
* G#
G#
e |---|---|---|-x-|---|
B |-x-|---|---|---|---|
G |-x-|---|---|---|---|
D |-x-|---|---|---|---|
A |---|---|---|---|---|
E |---|---|---|---|---|
* G#
G#
e |---|---|---|-x-|---|
B |-x-|---|---|---|---|
G |-x-|---|---|---|---|
D |-x-|---|---|---|---|
A |---|---|---|---|---|
E |---|---|---|---|---|
* B
B
e |---|-x-|---|---|---|
B |---|---|---|-x-|---|
G |---|---|---|-x-|---|
D |---|---|---|-x-|---|
A |---|-x-|---|---|---|
E |---|-x-|---|---|---|
* C#
C#
e |-x-|---|---|---|---|
B |---|-x-|---|---|---|
G |-x-|---|---|---|---|
D |---|---|-x-|---|---|
A |---|---|---|-x-|---|
E |---|---|---|---|---|
* And them rip them down again G#
G#
e |---|---|---|-x-|---|
B |-x-|---|---|---|---|
G |-x-|---|---|---|---|
D |-x-|---|---|---|---|
A |---|---|---|---|---|
E |---|---|---|---|---|
* G#
G#
e |---|---|---|-x-|---|
B |-x-|---|---|---|---|
G |-x-|---|---|---|---|
D |-x-|---|---|---|---|
A |---|---|---|---|---|
E |---|---|---|---|---|
* G#
G#
e |---|---|---|-x-|---|
B |-x-|---|---|---|---|
G |-x-|---|---|---|---|
D |-x-|---|---|---|---|
A |---|---|---|---|---|
E |---|---|---|---|---|
* B
B
e |---|-x-|---|---|---|
B |---|---|---|-x-|---|
G |---|---|---|-x-|---|
D |---|---|---|-x-|---|
A |---|-x-|---|---|---|
E |---|-x-|---|---|---|
* C#
C#
e |-x-|---|---|---|---|
B |---|-x-|---|---|---|
G |-x-|---|---|---|---|
D |---|---|-x-|---|---|
A |---|---|---|-x-|---|
E |---|---|---|---|---|
* / G#
G#
e |---|---|---|-x-|---|
B |-x-|---|---|---|---|
G |-x-|---|---|---|---|
D |-x-|---|---|---|---|
A |---|---|---|---|---|
E |---|---|---|---|---|
* G#
G#
e |---|---|---|-x-|---|
B |-x-|---|---|---|---|
G |-x-|---|---|---|---|
D |-x-|---|---|---|---|
A |---|---|---|---|---|
E |---|---|---|---|---|
* B
B
e |---|-x-|---|---|---|
B |---|---|---|-x-|---|
G |---|---|---|-x-|---|
D |---|---|---|-x-|---|
A |---|-x-|---|---|---|
E |---|-x-|---|---|---|
B
B
e |---|-x-|---|---|---|
B |---|---|---|-x-|---|
G |---|---|---|-x-|---|
D |---|---|---|-x-|---|
A |---|-x-|---|---|---|
E |---|-x-|---|---|---|
Sapling switches will rend those rags alright G#
G#
e |---|---|---|-x-|---|
B |-x-|---|---|---|---|
G |-x-|---|---|---|---|
D |-x-|---|---|---|---|
A |---|---|---|---|---|
E |---|---|---|---|---|
* G#
G#
e |---|---|---|-x-|---|
B |-x-|---|---|---|---|
G |-x-|---|---|---|---|
D |-x-|---|---|---|---|
A |---|---|---|---|---|
E |---|---|---|---|---|
* G#
G#
e |---|---|---|-x-|---|
B |-x-|---|---|---|---|
G |-x-|---|---|---|---|
D |-x-|---|---|---|---|
A |---|---|---|---|---|
E |---|---|---|---|---|
* B
B
e |---|-x-|---|---|---|
B |---|---|---|-x-|---|
G |---|---|---|-x-|---|
D |---|---|---|-x-|---|
A |---|-x-|---|---|---|
E |---|-x-|---|---|---|
* C#
C#
e |-x-|---|---|---|---|
B |---|-x-|---|---|---|
G |-x-|---|---|---|---|
D |---|---|-x-|---|---|
A |---|---|---|-x-|---|
E |---|---|---|---|---|
* / G#
G#
e |---|---|---|-x-|---|
B |-x-|---|---|---|---|
G |-x-|---|---|---|---|
D |-x-|---|---|---|---|
A |---|---|---|---|---|
E |---|---|---|---|---|
* G#
G#
e |---|---|---|-x-|---|
B |-x-|---|---|---|---|
G |-x-|---|---|---|---|
D |-x-|---|---|---|---|
A |---|---|---|---|---|
E |---|---|---|---|---|
* G#
G#
e |---|---|---|-x-|---|
B |-x-|---|---|---|---|
G |-x-|---|---|---|---|
D |-x-|---|---|---|---|
A |---|---|---|---|---|
E |---|---|---|---|---|
* B
B
e |---|-x-|---|---|---|
B |---|---|---|-x-|---|
G |---|---|---|-x-|---|
D |---|---|---|-x-|---|
A |---|-x-|---|---|---|
E |---|-x-|---|---|---|
* C#
C#
e |-x-|---|---|---|---|
B |---|-x-|---|---|---|
G |-x-|---|---|---|---|
D |---|---|-x-|---|---|
A |---|---|---|-x-|---|
E |---|---|---|---|---|
* What a sweet sound it makes C#
C#
e |-x-|---|---|---|---|
B |---|-x-|---|---|---|
G |-x-|---|---|---|---|
D |---|---|-x-|---|---|
A |---|---|---|-x-|---|
E |---|---|---|---|---|
D#
D#
e |-x-|---|---|---|---|
B |---|-x-|---|---|---|
G |-x-|---|---|---|---|
D |---|---|-x-|---|---|
A |---|---|---|-x-|---|
E |---|---|---|---|---|
And what we do with ten dirty Jews B
B
e |---|-x-|---|---|---|
B |---|---|---|-x-|---|
G |---|---|---|-x-|---|
D |---|---|---|-x-|---|
A |---|-x-|---|---|---|
E |---|-x-|---|---|---|
C#m
C#m
e |-x-|---|---|---|---|
B |---|-x-|---|---|---|
G |---|---|-x-|---|---|
D |---|---|-x-|---|---|
A |-x-|---|---|---|---|
E |---|---|---|---|---|
A thirty-ought full of rock salt and a warm afternoon? B
B
e |---|-x-|---|---|---|
B |---|---|---|-x-|---|
G |---|---|---|-x-|---|
D |---|---|---|-x-|---|
A |---|-x-|---|---|---|
E |---|-x-|---|---|---|
What do we do? A#
A#
e |---|---|---|---|---|
B |---|---|-x-|---|---|
G |---|---|-x-|---|---|
D |---|---|-x-|---|---|
A |-x-|---|---|---|---|
E |---|---|---|---|---|
* What do we do? A#
A#
e |---|---|---|---|---|
B |---|---|-x-|---|---|
G |---|---|-x-|---|---|
D |---|---|-x-|---|---|
A |-x-|---|---|---|---|
E |---|---|---|---|---|
* Lay your belly under mine A#
A#
e |---|---|---|---|---|
B |---|---|-x-|---|---|
G |---|---|-x-|---|---|
D |---|---|-x-|---|---|
A |-x-|---|---|---|---|
E |---|---|---|---|---|
* B
B
e |---|-x-|---|---|---|
B |---|---|---|-x-|---|
G |---|---|---|-x-|---|
D |---|---|---|-x-|---|
A |---|-x-|---|---|---|
E |---|-x-|---|---|---|
A#
A#
e |---|---|---|---|---|
B |---|---|-x-|---|---|
G |---|---|-x-|---|---|
D |---|---|-x-|---|---|
A |-x-|---|---|---|---|
E |---|---|---|---|---|
* Naked under me, under me A#
A#
e |---|---|---|---|---|
B |---|---|-x-|---|---|
G |---|---|-x-|---|---|
D |---|---|-x-|---|---|
A |-x-|---|---|---|---|
E |---|---|---|---|---|
* Such a filthy dimming shine A#
A#
e |---|---|---|---|---|
B |---|---|-x-|---|---|
G |---|---|-x-|---|---|
D |---|---|-x-|---|---|
A |-x-|---|---|---|---|
E |---|---|---|---|---|
* B
B
e |---|-x-|---|---|---|
B |---|---|---|-x-|---|
G |---|---|---|-x-|---|
D |---|---|---|-x-|---|
A |---|-x-|---|---|---|
E |---|-x-|---|---|---|
A#
A#
e |---|---|---|---|---|
B |---|---|-x-|---|---|
G |---|---|-x-|---|---|
D |---|---|-x-|---|---|
A |-x-|---|---|---|---|
E |---|---|---|---|---|
* The way you kick and scream, kick and scream A#
A#
e |---|---|---|---|---|
B |---|---|-x-|---|---|
G |---|---|-x-|---|---|
D |---|---|-x-|---|---|
A |-x-|---|---|---|---|
E |---|---|---|---|---|
* A#
A#
e |---|---|---|---|---|
B |---|---|-x-|---|---|
G |---|---|-x-|---|---|
D |---|---|-x-|---|---|
A |-x-|---|---|---|---|
E |---|---|---|---|---|
/A
A
e |---|---|---|---|---|
B |---|-x-|---|---|---|
G |---|-x-|---|---|---|
D |---|-x-|---|---|---|
A |---|---|---|---|---|
E |---|---|---|---|---|
* A#
A#
e |---|---|---|---|---|
B |---|---|-x-|---|---|
G |---|---|-x-|---|---|
D |---|---|-x-|---|---|
A |-x-|---|---|---|---|
E |---|---|---|---|---|
* A#
A#
e |---|---|---|---|---|
B |---|---|-x-|---|---|
G |---|---|-x-|---|---|
D |---|---|-x-|---|---|
A |-x-|---|---|---|---|
E |---|---|---|---|---|
* A#
A#
e |---|---|---|---|---|
B |---|---|-x-|---|---|
G |---|---|-x-|---|---|
D |---|---|-x-|---|---|
A |-x-|---|---|---|---|
E |---|---|---|---|---|
/A
A
e |---|---|---|---|---|
B |---|-x-|---|---|---|
G |---|-x-|---|---|---|
D |---|-x-|---|---|---|
A |---|---|---|---|---|
E |---|---|---|---|---|
* G#
G#
e |---|---|---|-x-|---|
B |-x-|---|---|---|---|
G |-x-|---|---|---|---|
D |-x-|---|---|---|---|
A |---|---|---|---|---|
E |---|---|---|---|---|
* A#
A#
e |---|---|---|---|---|
B |---|---|-x-|---|---|
G |---|---|-x-|---|---|
D |---|---|-x-|---|---|
A |-x-|---|---|---|---|
E |---|---|---|---|---|
* C#
C#
e |-x-|---|---|---|---|
B |---|-x-|---|---|---|
G |-x-|---|---|---|---|
D |---|---|-x-|---|---|
A |---|---|---|-x-|---|
E |---|---|---|---|---|
D#
D#
e |-x-|---|---|---|---|
B |---|-x-|---|---|---|
G |-x-|---|---|---|---|
D |---|---|-x-|---|---|
A |---|---|---|-x-|---|
E |---|---|---|---|---|
And what do we with ten baby shoes B
B
e |---|-x-|---|---|---|
B |---|---|---|-x-|---|
G |---|---|---|-x-|---|
D |---|---|---|-x-|---|
A |---|-x-|---|---|---|
E |---|-x-|---|---|---|
C#m
C#m
e |-x-|---|---|---|---|
B |---|-x-|---|---|---|
G |---|---|-x-|---|---|
D |---|---|-x-|---|---|
A |-x-|---|---|---|---|
E |---|---|---|---|---|
A kit bag full of marbles and broken billiard cue? B
B
e |---|-x-|---|---|---|
B |---|---|---|-x-|---|
G |---|---|---|-x-|---|
D |---|---|---|-x-|---|
A |---|-x-|---|---|---|
E |---|-x-|---|---|---|
What do we do? G#
G#
e |---|---|---|-x-|---|
B |-x-|---|---|---|---|
G |-x-|---|---|---|---|
D |-x-|---|---|---|---|
A |---|---|---|---|---|
E |---|---|---|---|---|
* G#
G#
e |---|---|---|-x-|---|
B |-x-|---|---|---|---|
G |-x-|---|---|---|---|
D |-x-|---|---|---|---|
A |---|---|---|---|---|
E |---|---|---|---|---|
* G#
G#
e |---|---|---|-x-|---|
B |-x-|---|---|---|---|
G |-x-|---|---|---|---|
D |-x-|---|---|---|---|
A |---|---|---|---|---|
E |---|---|---|---|---|
* B
B
e |---|-x-|---|---|---|
B |---|---|---|-x-|---|
G |---|---|---|-x-|---|
D |---|---|---|-x-|---|
A |---|-x-|---|---|---|
E |---|-x-|---|---|---|
* C#
C#
e |-x-|---|---|---|---|
B |---|-x-|---|---|---|
G |-x-|---|---|---|---|
D |---|---|-x-|---|---|
A |---|---|---|-x-|---|
E |---|---|---|---|---|
* What do we do? G#
G#
e |---|---|---|-x-|---|
B |-x-|---|---|---|---|
G |-x-|---|---|---|---|
D |-x-|---|---|---|---|
A |---|---|---|---|---|
E |---|---|---|---|---|
* G#
G#
e |---|---|---|-x-|---|
B |-x-|---|---|---|---|
G |-x-|---|---|---|---|
D |-x-|---|---|---|---|
A |---|---|---|---|---|
E |---|---|---|---|---|
* G#
G#
e |---|---|---|-x-|---|
B |-x-|---|---|---|---|
G |-x-|---|---|---|---|
D |-x-|---|---|---|---|
A |---|---|---|---|---|
E |---|---|---|---|---|
* B
B
e |---|-x-|---|---|---|
B |---|---|---|-x-|---|
G |---|---|---|-x-|---|
D |---|---|---|-x-|---|
A |---|-x-|---|---|---|
E |---|-x-|---|---|---|
* C#
C#
e |-x-|---|---|---|---|
B |---|-x-|---|---|---|
G |-x-|---|---|---|---|
D |---|---|-x-|---|---|
A |---|---|---|-x-|---|
E |---|---|---|---|---|
* G#
G#
e |---|---|---|-x-|---|
B |-x-|---|---|---|---|
G |-x-|---|---|---|---|
D |-x-|---|---|---|---|
A |---|---|---|---|---|
E |---|---|---|---|---|
* G#
G#
e |---|---|---|-x-|---|
B |-x-|---|---|---|---|
G |-x-|---|---|---|---|
D |-x-|---|---|---|---|
A |---|---|---|---|---|
E |---|---|---|---|---|
* G#
G#
e |---|---|---|-x-|---|
B |-x-|---|---|---|---|
G |-x-|---|---|---|---|
D |-x-|---|---|---|---|
A |---|---|---|---|---|
E |---|---|---|---|---|
* B
B
e |---|-x-|---|---|---|
B |---|---|---|-x-|---|
G |---|---|---|-x-|---|
D |---|---|---|-x-|---|
A |---|-x-|---|---|---|
E |---|-x-|---|---|---|
* C#
C#
e |-x-|---|---|---|---|
B |---|-x-|---|---|---|
G |-x-|---|---|---|---|
D |---|---|-x-|---|---|
A |---|---|---|-x-|---|
E |---|---|---|---|---|
* / G#
G#
e |---|---|---|-x-|---|
B |-x-|---|---|---|---|
G |-x-|---|---|---|---|
D |-x-|---|---|---|---|
A |---|---|---|---|---|
E |---|---|---|---|---|
* G#
G#
e |---|---|---|-x-|---|
B |-x-|---|---|---|---|
G |-x-|---|---|---|---|
D |-x-|---|---|---|---|
A |---|---|---|---|---|
E |---|---|---|---|---|
* B
B
e |---|-x-|---|---|---|
B |---|---|---|-x-|---|
G |---|---|---|-x-|---|
D |---|---|---|-x-|---|
A |---|-x-|---|---|---|
E |---|-x-|---|---|---|
B
B
e |---|-x-|---|---|---|
B |---|---|---|-x-|---|
G |---|---|---|-x-|---|
D |---|---|---|-x-|---|
A |---|-x-|---|---|---|
E |---|-x-|---|---|---|
Lazy lady had a baby girl G#m
G#m
e |-x-|---|---|---|---|
B |-x-|---|---|---|---|
G |-x-|---|---|---|---|
D |---|---|-x-|---|---|
A |---|---|-x-|---|---|
E |-x-|---|---|---|---|
And a sweet sound it made

Added On December 4th, 2013

SHARE

Comments

blog comments powered by Disqus

VERSIONS

ADVERTISEMENT