Depeche Mode Tabs

Dream On

4 versions

TAB

            Dream On Tab by Depeche Mode


Artist:  Depeche Mode
Track:   Dream On
Album:   Exciter

Words and Music written by Martin Gore

Original tab by Tabbed by Lisa R...  plaidmonkey13@hotmail.com.
  
Re-Tabbed by Daniel Soltyka (daniel@liquidskymusic.net)

*NOTE*  Guitar must be tuned down 1/2 step to D#

There is another tab floating around the net of this song that is very 
close to correct.  For anyone who has seen Depeche Mode live, this is how 
Martin plays it.

Lisa had the notes correct on her tab, but she omitted the last low G (but
note for note she was correct).  So here is the altered version.

|----------------------------------|
|----------------------------------|
|----------------------------------|
|-----------5---2-------2----------|
|-------2-----------5--------------|
|---0-----------------------3---0--|


***  Unaltered from Lisa's version ***

Between verses, play this riff:

|----------------------------------------------------|
|----------------------------------------------------|
|-----------2-----------2-----------2------------2---|
|-------2-----------2-----------2------------2-------|
|---0-----------0-----------3------------3-----------|
|----------------------------------------------------|


For the chours, you can alternate between Riff #1 and Riff#2... its easy to figure out.


If you want to use chords for the chorus...



D       Am            Em
Can you feel a little love
D       Am            Em
Can you feel a little love
Am          D    
Dream on... Dream on...    

Added On December 4th, 2013

SHARE

Comments

blog comments powered by Disqus

VERSIONS

ADVERTISEMENT