TAB

            Liberation
tuning openC  (CGCGCE)
Made in 5 minutes..I think it's quite good! enjoy and rock!


intro
|------------------------|
|------------------------|
|------------------------|
|------------------------|
|-10-10-8-10-10-8-10-8---|
|-10-10-8-10-10-8-10-8---|


one minute away from you
|-------------------------------------------------------|
|-------------------------------------------------------|
|-------------------------------------------------------|
|-10-10-10-10-10-10-10-10-10-10-10-10-10-10-10-10-10----|
|-8--8--8--8--8--8--8--8--8--8--8--8--8--8--8--8--8-----|
|-------------------------------------------------------|
x4
|------------------------|
|------------------------|
|------------------------|
|------------------------|
|-10-10-8-10-10-8-10-8---|
|-10-10-8-10-10-8-10-8---|


variation
|-------------------------------------------------------|
|-------------------------------------------------------|
|-------------------------------------------------------|
|-8--8--8--8--8--8--8--8--8--8--8--8--8--8--8--8--8-----|
|-6--6--6--6--6--6--6--6--6--6--6--6--6--6--6--6--6-----|
|-------------------------------------------------------|
x4
|------------------------|
|------------------------|
|------------------------|
|------------------------|
|-10-10-8-10-10-8-10-8---|
|-10-10-8-10-10-8-10-8---| 


Rock! let's Rock!
|-------------------------------------------------------|
|-------------------------------------------------------|
|-------------------------------------------------------|
|-5---------------1-------------------------------------| x3
|-3-------3-------1-------------------------------------|
|---------3---------------------------------------------|

|-------------------------------------------------------|
|-------------------------------------------------------|
|-------------------------------------------------------|
|-5-----------------------------------------------------|
|-3------6--------3-------------------------------------|
|--------6--------3-------------------------------------|


Bridge
|-----------------------------------------------|
|-----------------------------------------------|
|-----------------------------------------------|
|-------------5------------------------5------4-|
|-8-----3-----3-----5----7-8----3------3------2-|
|-8-----3-----------5----7-8----3---------------|

|------------------------------------------------|
|------------------------------------------------|
|------------------------------------------------|
|-----------6------------------------------------|
|-8----3----4----5-----8----3------55555555555---|
|-8----3---------5-----8----3------55555555555---|    

Added On August 15th, 2014

SHARE

Comments

blog comments powered by Disqus

ADVERTISEMENT