Dimmu Borgir Tabs

Sorgens Kammer

6 versions

TAB

            Sorgens Kammer Tab by Dimmu Borgir


 intro
  
  gtr1 clean                            riff A
|----------------------------------------------|
|---------------------------------------3------| 
|-----------------------------------------2----|  x8
|------0--3------0--3-------0--3-----0---------|
|----0---------0----------0--------0-----------|
|--0---------1--------1-0--------1-------------|
|
| gtr2 distorted
|------------|-------------|
|------------|-------------|
|---rest-----|-------------|  then riff A
|------------|-------------|  2x distorted
|------------|--0-----(0)--|
|------------|--0-----(0)--|

|------------|-------------|
|------------|-------------|
|------------|-------------|  riff A 2x
|------------|-------------|  distorted
|--0-----(0)-|--0-----(0)--|
|--0-----(0)-|--0-----(0)--|

 pre verse
                                                                                                
  gtr1: riff Ax2 distorted
                 
  gtr2          riff B                          
|------------------|------------------|  
|------------------|------------------|  
|------------------|------------------|  x4
|------------------|------------------|  
|-0-0-0-0-0-0-0-0--|-1-1-1-3-3-3-1-1--| 
|-0-0-0-0-0-0-0-0--|-1-1-1-3-3-3-1-1--|  
                                         
 verse

  gtr 1                  riff C
|--------------------------------|                                  
|--------------------------------|
|--------------------------------|
|--------------------------------| x4
|--9--10--9----------------------|
|-----------12--10--12--13-------|
|  T   T  T  T   T   T   T  (tremelo pick)
|
| gtr 2 does riff C 2x
|    then this 
|------------------------------|
|------------------------------|
|------------------------------|
|--11--12--11------------------| x2
|--------------12--10--12--13--|
|------------------------------|
   T   T   T   T   T   T   T 

       pre verse

        verse

       pre verse

 chorus

  gtr1
|-------------|----------------------------|
|-------------|--------3--------------3----|
|-------------|----------2---2----------2--|
|-------------|------0-----0-------0-------| 
|--5----4--8--|----0-------------0---------|
|--5----4--8--|--1-------------1-----------|
|
| gtr2
|-------------|----------------------------|
|-------------|----------------------------|
|-------------|----------------------------|
|-------------|----------------------------|
|--5----4--8--|--0---------(0)--------(0)--|
|--5----4--8--|--0---------(0)--------(0)--|

  gtr1&2
|----------------|---------------------|
|----------------|---------------------|
|--------/8---/8-|-------/8---/8-------|
|--------/8---/8-|-------/8---/8-------|
|--0--00-/6-0-/6-|-0--00-/6-0-/6-------|
|--0--00----0----|-0--00----0----------|

  gtr1
|-------------|----------------------------|
|-------------|--------3--------------3----|
|-------------|----------2---2----------2--|
|-------------|------0-----0-------0-------| 
|--5----4--8--|----0-------------0---------|
|--5----4--8--|--1-------------1-----------|
|
| gtr2
|-------------|----------------------------|
|-------------|----------------------------|
|-------------|----------------------------|
|-------------|----------------------------|
|--5----4--8--|--0---------(0)--------(0)--|
|--5----4--8--|--0---------(0)--------(0)--|

  gtr1&2
|----------------|---------------------|
|----------------|---------------------|
|--------/8---/8-|-------/8---/8-------|
|--------/8---/8-|-------/8---/8-------|
|--0--00-/6-0-/6-|-0--00-/6-0-/6-------|
|--0--00----0----|-0--00----0----------|

       pre verse

        chorus

 interlude 

  gtr1 clean    
|------------------|---------------|
|------------------|---------------|
|------------------|---------------|
|----4-3---4-3-----|---------------| x4 
|--5-----5-----6/8-|-5--------(5)--|
|------------------|-0--------(0)--|
|
| gtr2 distorted
|-------------|----|---------------|
|-------------|----|---------------|
|-------------|----|---------------|
|----rest-----|----|---------------| rest first 3x of gtr1
|-------------|6/8-|-5--------(5)--|
|-------------|----|-0--------(0)--|

  gtr1 distorted
|------------------|---------------|------------------|----------------|
|------------------|---------------|------------------|------3---------|
|------------------|---------------|------------------|---------2------|
|----4-3---4-3-----|---------------|----4-3---4-3-----|----------0-----|
|--5-----5-----6/8-|-5--------(5)--|--5-----5-----6/8-|-5--------------|
|------------------|-0--------(0)--|------------------|-0--------------|
|                                                                         x2
| gtr2 distorted
|------------------|---------------|------------------|----------------|
|------------------|---------------|------------------|----------------|
|------------------|---------------|------------------|----------------|
|----4-3---4-3-----|---------------|----4-3---4-3-----|----------------|
|--5-----5-----6/8-|-5--------(5)--|--5-----5-----6/8-|-5--------(5)---|
|------------------|-0--------(0)--|------------------|-0--------(0)---|


 gtr1 distorted
|------------------|---------------|------------------|----------------|
|------------------|---------------|------------------|------3---------|
|------------------|---------------|------------------|---------2------|
|----4-3---4-3-----|---------------|----4-3---4-3-----|----------0-----|
|--5-----5-----6/8-|-5--------(5)--|--5-----5-----6/8-|-5--------------|
|------------------|-0--------(0)--|------------------|-0--------------|
|                                                                         x2
| gtr2 distorted
|------------------|---------------|------------------|----------------|
|------------------|---------------|------------------|----------------|
|------------------|---------------|------------------|----------------|
|----4-3---4-3-----|---------------|----4-3---4-3-----|----------------|
|--5-----5-----6/8-|-5-----8-------|--5-----5-----6/8-|-5--------(5)---|
|------------------|-0----(0)------|------------------|-0--------(0)---|


 gtr1 distorted
|------------------|---------------|------------------|----------------|
|------------------|---------------|------------------|------3---------|
|------------------|---------------|------------------|---------2------|
|----4-3---4-3-----|---------------|----4-3---4-3-----|----------0-----|
|--5-----5-----6/8-|-5--------(5)--|--5-----5-----6/8-|-5--------------|
|------------------|-0--------(0)--|------------------|-0--------------|
|                                                                         
| gtr2 distorted
|------------------|---------------|------------------|----------------|
|------------------|---------------|------------------|----------------|
|------------------|---------------|------------------|----------------|
|----4-3---4-3-----|---------------|----4-3---4-3-----|----------------|
|--5-----5-----6/8-|-5--------(5)--|--5-----5-----6/8-|-5--------(5)---|
|------------------|-0--------(0)--|------------------|-0--------(0)---|


 gtr1 distorted
|------------------|---------------|------------------|----------------|
|------------------|---------------|------------------|------3---------|
|------------------|---------------|------------------|---------2------|
|----4-3---4-3-----|---------------|----4-3---4-3-----|----------------|
|--5-----5-----6/8-|-5--------(5)--|--5-----5-----6/8-|-5--------00----|
|------------------|-0--------(0)--|------------------|-0--------00----|
|                                                                         
| gtr2 distorted
|------------------|---------------|------------------|----------------|
|------------------|---------------|------------------|----------------|
|------------------|---------------|------------------|----------------|
|----4-3---4-3-----|---------------|----4-3---4-3-----|----------------|
|--5-----5-----6/8-|-5--------(5)--|--5-----5-----6/8-|-5----(5)-00----|
|------------------|-0--------(0)--|------------------|-0----(0)-00----|

       pre verse
       
       verse

       chorus

  gtr1&2
|----------------|---------------------|
|----------------|---------------------|
|--------/8---/8-|-------/8---/8-------|
|--------/8---/8-|-------/8---/8-------|
|--0--00-/6-0-/6-|-0--00-/6-0-/6-------|
|--0--00----0----|-0--00----0----------|

 outro
      
  gtr1 clean    
|------------------|---------------|
|------------------|---------------|
|------------------|---------------|
|----4-3---4-3-----|---------------| x4 
|--5-----5-----6/8-|-5--------(5)--|
|------------------|-0--------(0)--|
|
| gtr2 distorted
|-------------|----|---------------|
|-------------|----|---------------|
|-------------|----|---------------|
|----rest-----|----|---------------| rest first 3x of gtr1
|-------------|6/8-|-5--------(5)--|
|-------------|----|-0--------(0)--|

 
and then fade out. this is my first tab and i think its pretty
damn close, but if there are any mistakes my email is vettefreak618@yahoo.com    
Enjoy    

Added On December 4th, 2013

SHARE

Comments

blog comments powered by Disqus