Dimmu Borgir Tabs

Vredesbyrd

3 versions

TAB

            Vredesbyrd Tab by Dimmu Borgir


.  - palm mute           /  - slide up to
\  - slide down to       ~  - vibrato
h  - hammer on           b  - Bend
p  - pull off            Suffixes for bend
t  - tap                 f  - full bend    h - half bend
ph - pinched harmonic    q  - quarter bend t - tap bend
*  - see comment         ^  - Hold bend    r release bend
x  - Stuccatto           ~  - vibrato bend
,  - slight palm mute    () - ghost note, sustained note
"  - tremolo note         - Trill

Tunning E A D G B E
Note:I only have the rythym guitar for this.
Also.  Make sure you look at those stars at the end of the tune for details.
This tune can get somewhat get complicating.
Riff#1(a).Fast..picking=up and down stroking.
|-------------------------------------|
|-------------------------------------|
|-------------------------------------|
|-------------------------------------|
|----------------4----1111111-2-3\4-3-|
|1111111111111111-------------0-1\2-1-|
 ................*     ......
Riff#1(b).Same as riff 1, except where not.Just letting the two notes ring.4 and 1.
|-------------------------------------|
|-------------------------------------|
|-------------------------------------|
|-------------------------------------|
|----------------4----1-------2-3\4-3-|
|1111111111111111-------------0-1\2-1-|
 ................                   *

Riff#2.  Heavy.
|------------------------------------------|
|------------------------------------------|
|------------------------------------------|
|------------------------------------------|
|-------2\4-------2-4----1-1-1-1-1-2-3\4-3-|
|1-1-1-1---1-1-1-1-1---------------0-1\2-1-|
 . . . .     . . . .       . . . .
Riff#3. Heavy.Slow.
|---------------------------------------|
|---------------------------------------|
|---------------------------------------|
|5----7-6-8-5--8--7-8--5----7-6-8--4--6-|
|3----5-4-6-3--6--5-6--3----5-4-6--2--4-|
|3----5-4-6-3--6--5-6--3----5-4-6--2--4-|
      . . . .     . .       . . .
Transition A. Slow.
|-------------------|
|-------------------|
|-------------------| Repeat Riff #3.
|-------------------|
|3------------2---6-|
|-------------------|
Transition B. up and down picking.
|------------------------------------|
|------------------------------------|
|------------------------------------|
|------------------------------------|
|------------------------------------|
|0-0-0-0-0-0-0-0-0-0-0-0-0-0-0-0-12/3|
 . . . . . . . . . . . . . . . .
Riff#4. Slightly Fast.
|-------------------------------------------------------|--------------------------------|
|-------------------------------------------------------|--------------------------------|
|-------------------------------------------------------|--------------------------------|
|------------9-----------------------9-109-8-----------4|----------5----------7\8-7\8-7\8|
|2-----------7-----------2-----------7-8-7-6-----------2|----------3----------5\6-5\6-5\6|
|0-0-0-0-0-0---0-0-0-0-0-0-0-0-0-0-0---------0-0-0-0-0--|0-0-0-0-0---0-0-0-0-0-----------|
   . . . . .   . . . . .   . . . . .         . . . . .

Riff#4, continued.
Fill 1.
|-------------------------------------| |---|
|-------------------------------------| |---|
|-------------------------------------| |---|
|------------5------------------------| |---|Stop.  Drum Roll. Repeat Riff#3.
|------------3-3-3-3-3-3-3------------| |-2-|
|3-3-3-3-3-3---------------1-1-1-1-1-1| |-0-|
 . . . . . .   . . . . . . . . . . . .
Riff#5.Fast where bunched notes are of course.
|---------------------------------------------------------------------------|
|---------------------------------------------------------------------------|
|---------------------------------------------------------------------------|
|----------------------------------7---7------------------------------------|
|4--444444--4--444444--4--444444-55--55--4--444444-4-444444-----6-6-----5-5-|
|-----------------------------------------------------------44444-4-33333-3-|
 .  ......  .  ......  .  ...... ..  ..  .  ...... . ...... ....    ....

Riff #6.Fast.
|--------------------------------------------------------|              |---|----------------|
|--------------------------------------------------------|              |---|----------------|
|--------------------------------------------------------|              |---|----------------|
|--------------------------------------------------------|Repeat Riff#5.|---|----------------|
|7777777777777777888888887777777777777777----------------|              |-2-|-----3-3-3-3-3-3|
|----------------------------------------7777777766666666|              |-0-|-----1-1-1-1-1-1|
 ........................................................
Repeat Riff#1 and start at the * where note "4" is.                                  . . . . . .
Repeat Riff#1b, and
the last part of the riff where the 2nd * is in Riff#1 b. Continue with this:

|--------|
|--------|
|--------|
|--------|
|3-3-3-3-|
|1-1-1-1-|
 . . . .
End Riff.    

Added On December 4th, 2013

SHARE

Comments

blog comments powered by Disqus

VERSIONS

ADVERTISEMENT