Driving On 9 Tabs

The Breeders

1 versions

TAB

            Chords: G D Am C

  G      D      Am     C
--3------2------0------0----------------------------------|
--0------3------1------1----------------------------------|
--0------2------2------0----------------------------------|
--0------0------2------2----------------------------------|
--2--------------------3----------------------------------|
--3-------------------------------------------------------| repeat during all the song


---7--7-5-7--7-5-7-5-3---12--12-10-12--12-10-12-10-8------|
----------------------------------------------------------|
----------------------------------------------------------|
----------------------------------------------------------|
----------------------------------------------------------|
----------------------------------------------------------|    

Added On December 16th, 2013

SHARE

Comments

blog comments powered by Disqus

ADVERTISEMENT