Elvenking Tabs

To Oak Woods Bestowed

2 versions

TAB

            Regular Tuning (E,A,D,G,B,E)
There are surely some errors in the tablature for this song but most of it is correct (I believe).
If you notice any errors and you can figure out how to play it right,
fix it- I beg- and lemme know. Here t'is, the intro to the great cd called Heathenreel: 
Oak Woods Bestowed

Part 1: Repeat twice

------0-1--0-1-3-1-0-1-0-----------------------------|E
-3--3--------------------1-1h3--3-3-1-3--------------|B
-----------------------------------------------------|G
-----------------------------------------------------|D
-----------------------------------------------------|A
-----------------------------------------------------|E

-s10--10-10-8-7-8-7h8p7s5--5-3-1-3-0-------------------------|E
-------------------------------------1-1h3--3-3-1-3----------|B
-------------------------------------------------------------|G
-------------------------------------------------------------|D
-------------------------------------------------------------|A
-------------------------------------------------------------|E

Part 2:

------0-1--3--1--0----3-1-0---1-0------0----------------------------|E
-3--3--------------3--------1-----3--3---3-1--1h3-----s6-5----------|B
--------------------------------------------------------------------|G
--------------------------------------------------------------------|D
--------------------------------------------------------------------|A
--------------------------------------------------------------------|E

------0-1--3--1--0----3-1-0---1-0------0------------3-1-0-----------|E
-3--3--------------3--------1-----3--3---3-1--1h3-3-----------------|B
--------------------------------------------------------------------|G
--------------------------------------------------------------------|D
--------------------------------------------------------------------|A
--------------------------------------------------------------------|E

------------------------s5--6-5-3-5-3h5p3s1-3-1---------------------|E
-1--1-1-1-1--3--3-3-1-3-------------------------1s3-----------------|B
--------------------------------------------------------------------|G
--------------------------------------------------------------------|D
--------------------------------------------------------------------|A
--------------------------------------------------------------------|E

Part 3: Repeat 4 Times

-s5-5-6-5-3-1-1-1-0-1--3-3-3-1-3--s8-8-6-6--------------------------|E
--------------------------------------------------------------------|B
--------------------------------------------------------------------|G
--------------------------------------------------------------------|D
--------------------------------------------------------------------|A
--------------------------------------------------------------------|E

Part 4: Repeat twice

-s5-5-6-6-5-5--6-5-3--s5-5-6-6-5-3------------|E
-----------------------------------6-3--------|B
----------------------------------------------|G
----------------------------------------------|D
----------------------------------------------|A
----------------------------------------------|E

Repeat Part 3, and Part 4 a bit.    

Added On December 16th, 2013

SHARE

Comments

blog comments powered by Disqus

VERSIONS

ADVERTISEMENT