Endank Soekamti Tabs

Heavy Birthday

1 versions

TAB

            Song        : Heavy Birthday
Artist      : Endank Soekamti
Album       : Soekamti.Com
Tabbed by   : yoos (yoosyoes.blogspot.com)


Fig1
e|----------------------------------------------|
B|----------------------------------------------|
G|--4---------------------4------5--5-4------4--|
D|----7-5-------5-4--5-7----7-5----------7-7----|
A|---------7--7---------------------------------|
E|----------------------------------------------|

e|-------------------------------------------------|
B|-------------------------------------------------|
G|--4---------------------4------5--5-4------4-----|
D|----7-5-------5--4-5-7----7-5----------7-7----5--|
A|---------7--7------------------------------------|
E|-------------------------------------------------|

Fig2
e|---------------------------------|
B|---------------------------------|
G|--9--9-9-11--11-11-12--12-12-14--|
D|---------------------------------|
A|--7--7-7-9---9--9--10--10-10-12--|
E|---------------------------------|


Fig3
e|--10h12-12-12--10h12-12-12--10h12-12-15--12-10\--|
B|-------------------------------------------------|
G|-------------------------------------------------|
D|-------------------------------------------------|
A|-------------------------------------------------|
E|-------------------------------------------------|

Fig4
e|-----------------------------------------|
B|-----------------------------------------|
G|--7-7-7---11-11-11-11---9-9-9---7-7-7-6--|
D|-----------------------------------------|
A|--5-5-5---9--9--9--9----7-7-7---5-5-5-4--|
E|-----------------------------------------|

e|-----------------------------------------------|
B|-----------------------------------------------|
G|--7-7-7---11-11-11-11---9-9-9---8-8-8-8-7-7-7--|
D|-----------------------------------------------|
A|--5-5-5---9--9--9--9----7-7-7---6-6-6-6-5-5-5--|
E|-----------------------------------------------|

e|----------------------------------------------|
B|----------------------------------------------|
G|--7-7-7---11-11-11-11---9-9-9---6-6-6--7-7-7--|
D|----------------------------------------------|
A|--5-5-5---9--9--9--9----7-7-7---4-4-4--5-5-5--|
E|----------------------------------------------|

e|----------------------------------------------|
B|----------------------------------------------|
G|--7-7-7---11-11-11-11---9-9-9---6-6-6--7-7-7--|
D|----------------------------------------------|
A|--5-5-5---9--9--9--9----7-7-7---4-4-4--5-5-5--|
E|----------------------------------------------|

Fig5
e|-------------------------------7\--|
B|--5---5-7---5-7-8---7-8-10---8-----|
G|----5------------------------------|
D|-----------------------------------|
A|-----------------------------------|
E|-----------------------------------|

Fig6
e|------------------------------|
B|------------------------------|
G|--4-----------------------4\--|
D|------4-5---4-----5-4---7-----|
A|--------------7---------------|
E|------------------------------|

Fig7
e|---------------------------7------------------------|
B|------------------------------7--8-----10-----7-----|
G|--4---------------------------------9------9-----7--|
D|-----4--5-----7-----4-------------------------------|
A|-----------7-----7-----5----------------------------|
E|----------------------------------------------------|

Fig8
e|---------------------------------------------------|
B|---------------------------------------------------|
G|--14-14-14-12---12-12-12-11-9-9---7-7-7-9-9-11-12--|
D|---------------------------------------------------|
A|--12-12-12-10---10-10-10-9--7-7---5-5-5-7-7-9--10--|
E|---------------------------------------------------|

e|-------------------------------------------------------------------|
B|-------------------------------------------------------------------|
G|--14-14-14-12---12-12-12-11-9-9---7-7-7-9-9-11-12---6-6-6-6-5-5-5--|
D|-------------------------------------------------------------------|
A|--12-12-12-10---10-10-10-9--7-7---5-5-5-7-7-9--10---4-4-4-4-3-3-3--|
E|-------------------------------------------------------------------|


CHORD

Fig1
G5 C5 D5

G5

C5             D5
bertambah lagi usiamu
B5             E5
tambah tua saja dirimu
C5             D5
cepat bertobat sebelum kiamat

Fig2
G5 F#5 E5 D5

C5             D5
sebelumnya haruslah makan
B5             E5
barulah kita mendoakan
C5             D5
hanya itu yang bisa kuberikan

Fig3
D5/E5 D5/E5 D5/E5 G5 E5 D5

Fig4
G5             B5        C5       D5
happy birthday to you we hope you happy everytime
G5     B5     C5      A5 D5
sukses selalu untukmu
G5             B5        C5       A5 D5
happy birthday to you we love you
G5             B5        C5       A5 D5
happy birthday to you we love you

Fig1
G5 C5 D5

C5           D5
tak ada kado istimewa
B5           E5
karena tak ada biaya
C5              D5              
karena sekarang bukan tanggal muda

Fig5
G5 F#5 E5 D5

C5             D5
sebelumnya haruslah makan
B5             E5
barulah kita mendoakan
C5             D5
hanya itu yang bisa kuberikan

Fig3
D5/E5 D5/E5 D5/E5 G5 E5 D5

Fig4
G5             B5        C5       D5
happy birthday to you we hope you happy everytime
G5     B5     C5      A5 D5
sukses selalu untukmu
G5             B5        C5       A5 D5
happy birthday to you we love you
G5             B5        C5       A5 D5
happy birthday to you we love you

Fig6
B5   F#5 G5   F#5 E5   G5 F#5   A5
Fig7

C5             D5
bertambah lagi usiamu
B5             E5
tambah tua saja dirimu
C5             D5
cepat bertobat sebelum

Fig8
G5             B5        C5       D5
happy birthday to you we hope you happy everytime
G5     B5     C5      A5 D5
sukses selalu untukmu
G5             B5        C5       A5 D5
happy birthday to you we love you
G5             B5        C5       A5 D5
happy birthday to you we love you    

Added On December 16th, 2013

SHARE

Comments

blog comments powered by Disqus

ADVERTISEMENT