Endstille Tabs

Anomie

1 versions

TAB

            |------------------------------------|
|------------------------------------|
|-0-0-0-0-0-0-0-0-0-0-0-0-0-0-0-0----|
|-3-3-3-3-5-5-5-5-1-1-1-1-1-1-1-1----|
|-5-5-5-5-7-7-7-7-3-3-3-3-3-3-3-3----|
|------------------------------------|


|------------------------------------|
|------------------------------------|
|-0-0-0-0-0-0-0-0-0-0-0-0-0-0-0-0----|
|-7-7-7-7-9-9-9-9-5-5-5-5-5-5-5-5----|
|-5-5-5-5-7-7-7-7-3-3-3-3-3-3-3-3----|
|------------------------------------|


|--------------------------------------------------------------------|
|--------------------------------------------------------------------|
|--------------------------------------------------------------------|
|-9-9-8-8-5-5-5-5-3-3-3-3-0-0-4-4-5-5-5-5-5-5-5-5-0-0-0-0-4-4-4-4----|
|-7-7-7-7-7-7-7-7-6-6-6-6-6-6-6-6-3-3-3-3-3-3-3-3-6-6-6-6-6-6-6-6----|
|--------------------------------------------------------------------|


|--------------------------------------------------------------------|
|--------------------------------------------------------------------|
|--------------------------------------------------------------------|
|-3-2-2-2-2-2-2-2-3-2-2-2-2-2-2-2-3-2-2-2-2-2-2-2-2-2-2-2-3-3-3-3----|
|-3-2-2-2-2-2-2-2-3-2-2-2-2-2-2-2-3-2-2-2-2-2-2-2-3-3-3-3-5-5-5-5----|
|-1-0-0-0-0-0-0-0-1-0-0-0-0-0-0-0-1-0-0-0-0-0-0-0--------------------|    

Added On December 16th, 2013

SHARE

Comments

blog comments powered by Disqus

ADVERTISEMENT