Endstille Tabs

Monotonus Ii

1 versions

TAB

            |--------------------------------------------|
|--------------------------------------------|
|-10-10-10-10--9--9-10-14-5-5-5-5-5-5-5-5----|
|-12-12-12-12-12-12-12-12-7-7-7-7-7-7-7-7----|
|--------------------------------------------|
|--------------------------------------------|


|--------------------------------------------------------|
|--------------------------------------------------------|
|-5-5-5-5-5-5-5-5-5-5-5-5-5-5-5-5--9-12-12-12-7-7-7-7----|
|-7-7-7-7-7-7-7-7-7-7-7-7-7-7-7-7-10-10-10-10-9-9-9-9----|
|--------------------------------------------------------|
|--------------------------------------------------------|


|--------------------------------------------|
|--------------------------------------------|
|--------------------------------------------|
|--------------------------------------------|
|-10-10-10-10-10-10-10-10-9-9-9-9-9-9-9-9----|
|--7--7--6--6--7--7--8--8-7-7-6-6-6-6-8-8----|    

Added On December 16th, 2013

SHARE

Comments

blog comments powered by Disqus

ADVERTISEMENT