Ensiferum Tabs

Treacherous Gods

5 versions

TAB

            Hello everybody!
               
                         This is a great song!


   Intro        0.00-0.57
e|-------------------------------------------------------------------------|
B|-------------------------------------------------------------------------|
G|-------------------------------------------------------------------------|
D|-------5-3-5-----5-3-5-----6-3-6-----6-3-6-------------------------------|
A|---3-3-------3-3-------3-3-------3-3-------------------------------------|
E|-------------------------------------------------------------------------|
     . .       . .       . .       . .
e|-------------------------------------------------------------------------|
B|-------------------------------------------------------------------------|
G|-------------------------------------------------------------------------|
D|-------5-3-5-----5-3-5-----3-1-3-----3-1-3-------------------------------|
A|---3-3-------3-3-------1-1-------1-1-------------------------------------|
E|-------------------------------------------------------------------------|
     . .       . .       . .       . .             all this 5 times


e|-------------------------------------------------------------------------|
B|-------------------------------------------------------------------------|
G|-------------------------------------------------------------------------|
D|-------5-3-5-----5-3-5-----6-3-6-----6-3-6-------------------------------|
A|---3-3-------3-3-------3-3-------3-3-------------------------------------|
E|-------------------------------------------------------------------------|
     . .       . .       . .       . .
e|-------------------------------------------------------------------------|
B|-------------------------------------------------------------------------|
G|-------------------------------------------------------------------------|
D|-------5-3-5-----5-3-5-------3-1-0-5-------------------------------------|
A|---3-3-------3-3-------1-1-1-------3-------------------------------------|
E|-------------------------------------------------------------------------|
     . .       . .       . . .                       this 1 time

   Riff 1       1.01-1.28
e|-------------------------------------------------------------------------|
B|-------------------------------------------------------------------------|
G|-------------------------------------------------------------------------|
D|------535---535---636---636---535---535---313---313----------------------|
A|---333---333---333---333---333---333---111---111-------------------------|
E|-------------------------------------------------------------------------|
     ...   ...   ...   ...   ...   ...   ...   ...      this 3 times

e|-------------------------------------------------------------------------|
B|-------------------------------------------------------------------------|
G|-------------------------------------------------------------------------|
D|------535---535---636---636---535---535---3105---------------------------|
A|---333---333---333---333---333---333---111---3---------------------------|
E|-------------------------------------------------------------------------|
     ...   ...   ...   ...   ...   ...   ...           and this 1 time

   Riff 2      1.29-1.42
e|-------------------------------------------------------------------------|
B|-------------------------------------------------------------------------|
G|-------------------------------------------------------------------------|
D|---3-333-------------3-333-----------------------------------------------|
A|--------6-3-5-5553--------6-3-5-5553-------------------------------------|
E|-------------------------------------------------------------------------|
       ...      ...      ...      ...

e|-------------------------------------------------------------------------|
B|-------------------------------------------------------------------------|
G|-------------------------------------------------------------------------|
D|---3-353-------------3-333-----------------------------------------------|
A|--------6-3-5-5653--------6-3-5--3---------------------------------------|
E|-------------------------------------------------------------------------|
                         ...                         all this 1 time

   Riff 3      1.43-1.56
e|-------------------------------------------------------------------------|
B|-------------------------------------------------------------------------|
G|-------------------------------------------------------------------------|
D|--------53333--------7-3-------------------------------------------------|
A|---33336-----656666535-1-------------------------------------------------|
E|-------------------------------------------------------------------------|
     ..................                             and this 4 times


                        To bi kontinjud!
                                   
                                   from Alltflesk    

Added On December 16th, 2013

SHARE

Comments

blog comments powered by Disqus

VERSIONS

ADVERTISEMENT