Esteban Tabs

Turkey In The Straw

1 versions

TAB

            Turkey in the Straw

This is another ditti that i learnt off esteban....its a catchy little tune that is easy 
learn and play...This song starts off at a medium pace and one you get the hang of it 
can speed the tempo up to your liking...Well here it is and hope you enjoy it.

s=slide


VERSE

E|-7-5-3-5-3-2-3-----------------3-5-5s7-7-7-5-3-5-5s7-5-5-|
B|---------------3-0-1-3-0-3-0-3---------------------------|
G|---------------------------------------------------------|
D|---------------------------------------------------------|
A|---------------------------------------------------------|
E|---------------------------------------------------------|

CHORUS

E|-7-5-3-5-3-2-3-----------------3-5-5s7-10-10-7------7--------|
B|---------------3-0-1-3-0-3-0-3-----------------8-10---8-10-8-|
G|-------------------------------------------------------------|
D|-------------------------------------------------------------|
A|-------------------------------------------------------------|
E|-------------------------------------------------------------|

E|-7-10-7-1010-7-10-7-10-8-12-8-1212-8-12-8-12-15-1515-10-1010-7-77------|R T
B|------------------------------------------------------------------10---|E W
G|-----------------------------------------------------------------------|P I
D|-----------------------------------------------------------------------|E C
A|-----------------------------------------------------------------------|A E
E|-----------------------------------------------------------------------|T

ENDING

E|-7-10-10-7------7------7-|
B|-----------8-10---8-10-8-|
G|-------------------------|
D|-------------------------|
A|-------------------------|
E|-------------------------|


Any questions or corrections email me at rickywyant91@hotmail.com    

Added On December 16th, 2013

SHARE

Comments

blog comments powered by Disqus

ADVERTISEMENT