Fall Tabs

Mansion

1 versions

TAB

            Mansion Tab by Fall


Band: The Fall
Song: Mansion
Tabber: Andrew Biles

All parts are arranged for guitar, so you can change them for the correct
instrument if you like. Tabbed for The Tab Team thread in Tab Talk.

bass plays.... (0:01)
|---------|----------------------
|---------|----------------------
|---------|----------------------
|---7-8-7-|----------------------
|-5-------|---7-8-7----7-8-7-8-7-
|---------|-5--------5-----------

guitar comes in plays.... (0:05)
|-----------|----------
|-----------|----------
|---9-10-9--|----------
|-7---------|---9-10-9-
|-----------|-7--------
|-----------|----------

(0:23)
|----
|----
|-11-
|-x--
|-9--
|---- sounds like an octave rather than a single note

the kind of pacier part is a bit confusing with the keyboard (?) going the wrong
way basically it seems
Bass...(0:37)
|---------------------------------
|---------------------------------
|---------------------------------
|---------------------------------
|-5-5-5-5-8-8-8-8-7-7-7-7-8-8-8-8-
|--------------------------------- x4

Keyboard...(0:37)
|-----------------------------------
|-----10~--8~----------10~--8~--11~-
|-7~-----------9~--7~---------------
|-----------------------------------
|-----------------------------------
|----------------------------------- x2


Guitar...(0:54)
|-----------|----------
|-----------|----------
|---9-10-9--|----------
|-7---------|---9-10-9-
|-----------|-7--------
|-----------|----------

Bass....
|---------|----------------------
|---------|----------------------
|---------|----------------------
|---7-8-7-|----------------------
|-5-------|---7-8-7----7-8-7-8-7-
|---------|-5--------5-----------

Keyboard (just plays these 2 notes/octaves over the guitar till the end, order may change)
|--------
|-10-----
|-x----9-
|-7------
|--------
|--------

any questions? andrewbiles@hotmail.com    

Added On December 4th, 2013

SHARE

Comments

blog comments powered by Disqus

ADVERTISEMENT